Slightly Stoopid - Wiseman Chords & Tabs

 

Wiseman Chords & Tabs

Slightly Stoopid Chords & Tabs

Version: 1 Type: Tab 0 ratings
1 star 2 stars 3 stars 4 stars 5 stars
comments

Wiseman Tab

this song, i found out my self and it really sounds like it.
so if you havent herd it then hear it first then try out my tabs ok.

artist: slightly stoopid
title: wiseman
tabbed by: hollow_teen@hotmail.com(a.k.a. Lee)

hit kind of hard like *tak*- *
tap the guitar- t
hammer on- h
--- = wait one second
       *                  *                  *                *
-----------------------------------------------------------------------|
--8-8--8---8-8-------------------------------------------7-7--7---7-7--|
--9-9--9---9-9-----9--9---9----9--9----------------------7-7--7---7-7--|
--9-9--9---9-9-----10-10--10---10-10----5-5--5---5-5-----7-7--7---7-7--|
--7-7--7---7-7-----10-10--10---10-10----5-5--5---5-5-----5-5--5---5-5--|
-------------------8--8---8----8--8-----3-3--3---3-3-------------------|
do this as many times as needed then do this picking when he sing -
neeeeeeeeeeeeed-(all i neeeeeeeed)
[ Tab from: http://www.guitartabs.cc/tabs/s/slightly_stoopid/wiseman_tab.html ]
---------------------------------------------------------|
---8---8---8----------------------------------7---7----7-| then start the 
----9---9------9----9-----9------4---4---4-----7---7-----|  picking again
----------------10----10----------5---5------------------|
--7---7---7----------------------------------5---5---5---|   THEN.......
--------------8----8-----8------3---3---3----------------|

----------------------------------------------------------------|
----------------------------------------------------------------|
----------------------------------------------------------------| then after 
-------9-9-t-------------------------------------7-7-5-5-4h5-4--| this.....
---7-7-------------10-10-t---------5-5-t-----5-5----------------|
-------------7-8-8-------------3-3------------------------------|

-----------------|             |----5h7-5---5-| this is the 
--8---------7----|down strum   |----------7---| last picking.
--9--9---4--7----|once         |--------------|
--9--10--5--7----| then.....   |--------------|
--7--10--5--5----|             |--------------|
-----8---3-------|             |--------------|

THE END.
PHEWWW MAN THAT WAS LONG FIRST TIME I WROTE THIS LONG TAB. WELL HERE IT IS AND
HOPE YOU ALL GUITARIST LIKE IT. IF YOU HAVE ANY QUESTIONS THEN EMAIL ME AT
HOLLOW_TEEN@HOTMAIL.COM. OH AND MAKE SURE YOUR SUBJECT IS "HEY LEE" OK.
SO TAKE CARE AND ENJOY.
Comments