Slightly Stoopid - Sweet Honey Chords & Tabs

 

Sweet Honey Chords & Tabs

Slightly Stoopid Chords & Tabs

Version: 1 Type: Tab

Sweet Honey Tab

   
Hey everyone! This is my first tab. Slighty Stoopid's guitar stuff is fun to play. 
for using it.. enjoy! :o)

Intro - (also played through most of the song)

d = downstoke
u = upstroke

   d d u  d  d u d u d u d u d u  d  d u d u d u d u d u d u d
e|-2-2-0-0h2-2-3-x-2-x-0-x-2-x-2-3p0-x-0-x-2-x-3-x-2-x-0-x-2-x---|
B|-3-3-3--3--3-3-x-3-x-3-x-3-x-0--3--x-3-x-3-x-3-x-3-x-2-x-3-x---|
G|-2-2-2--2--2-2-2-2-2-2-2-2-2-x--2--2-2-2-2-2-2-2-2-2-3-2-2-2---|
D|-0-0-0--0--0-0-0-0-0-0-0-0-0-x--0--0-0-0-0-0-0-0-0-0-0-0-0-0---|
A|---------------------------------------------------------------|
E|---------------------------------------------------------------|
[ Tab from: http://www.guitartabs.cc/tabs/s/slightly_stoopid/sweet_honey_tab.html ]
   d d u d    d u d u d u u d u d d u   d   d u d u d u u d u
e|-3-3-3-30h5-5-5-5-3-3-3-3-3-3-3-3-3--30h5-5-5-5-3-3-3-3-3-3-|
B|-3-3-3-30h5-5-5-5-3-3-3-3-3-3-3-3-3--30h5-5-5-5-3-3-3-3-3-3-|
G|-0-0-0-0----0-0-0-0-0-0-0-0-0-0-3-0--0----0-0-0-0-0-0-0-0-0-|
D|------------------------------------------------------------|
A|------------------------------------------------------------|
E|------------------------------------------------------------|
(Just repeat that the majority of the song.)

There's also another guitar in the background that plays something like this:

e|----------------------------------------|
B|-10/12-10-7-5-3-0-10/12-10-7-5-3-5/7-5--|
G|----------------------------------------|
D|----------------------------------------|
A|----------------------------------------|
E|----------------------------------------|

e|-------10------10------10------10------10oh12-10--|
B|-10oh12--10oh12--10oh12--10oh12--10oh12-----------|
G|--------------------------------------------------|
D|--------------------------------------------------|
A|--------------------------------------------------|
E|--------------------------------------------------|

Tabbed by: Katlyn