Slightly Stoopid - Sweet Honey Chords & Tabs

 

Sweet Honey Chords & Tabs

Slightly Stoopid Chords & Tabs

Version: 1 Type: Bass Tab 0 ratings
1 star 2 stars 3 stars 4 stars 5 stars
comments

Sweet Honey Bass Tab

g-----------------------------------------------------------------------------|
d-----------------------------------------------------------------------------|
a---2-3-4--5p3h5--5h7p5-5h7p5--5p3h5--5h7p5---------5h7p5-----------2-3-4-----|
e-3-----------------------------------------7--33---------7--33---3-----------|

chorus
g---------------------------------------------------------------------|
d-------7p5h7------7p5h7----------------------------------------------|
a--5-5---------5-5-------------5-3-5------2-3-4-----------------------|
e-------------------------3-3--------33-3-----------------------------|
[ Tab from: http://www.guitartabs.cc/tabs/s/slightly_stoopid/sweet_honey_btab.html ]
Comments