Slightly Stoopid - Fire Shot Chords & Tabs

 

Fire Shot Chords & Tabs

Slightly Stoopid Chords & Tabs

Version: 3 Type: Tab 0 ratings
1 star 2 stars 3 stars 4 stars 5 stars
comments

Fire Shot Tab

-------------------------------------------------------------------------------
			     Slightly Stoopid  Fire Shot
-------------------------------------------------------------------------------

Tabbed by: Adam
Email: Blackspider91@cox.net
[ Tab from: http://www.guitartabs.cc/tabs/s/slightly_stoopid/fire_shot_tab_ver_3.html ]
Tuning: Standard
 
 Guitar One      Guitar Ones riff is almost all Palm Muted
e|--------------------------------------------------------||-------------------|
B|-------------------------------------------------------o||-------------------|
G|--------9---------9------------------9---------9----11--||-------------------|
D|-9-9-11---11-9-11---11-9------9-9-11---11-9-11---11-----||-------------------|
A|-------------------------------------------------------o||--10\--------------|
E|--------------------------------------------------------||--------12\--------|
 Guitar Two                              \-Slide down to the bottom of the neck
e|--------------------------------||------------------------------------------||
B|-------------------------------o||-----------------------------------------o||
G|--------------------------------||------------------------------------------||
D|-2-2------------------1---1H2---||------------------------------------------||
A|------------2-2-2-2-2---2------o||-----------7-7------------------6---6H7--o||
E|-----0-0------------------------||---------------0-0----7-7-7-7-7---7-------||
                          H-Hammer
	The 2 guitarists just keep playing this and different variations 
of this through the whole song.  On the guitar number twos part, I put 
2 different ways to play his riff.  Use whatever sounds closer.
Comments