Slightly Stoopid - Fire Shot Chords & Tabs

 

Fire Shot Chords & Tabs

Slightly Stoopid Chords & Tabs

Version: 1 Type: Tab 0 ratings
1 star 2 stars 3 stars 4 stars 5 stars
comments

Fire Shot Tab

   
FIRESHOT.TAB

This TAB transcription was created using TAB MASTER version 1.0
If you enjoy using this program, please consider telling the author
about it: Ofir Zwebner, e-mail: ofirz1@ccsg.tau.ac.il
                    snail-mail: Ehoud 10, Tel Aviv, 69936, Israel

This program is freeware, but it took me some work to make it, so
your financial contribution is welcome.

--------------------------------------------------------------------



 Title: Fire Shot
 Artist: Slightly Stoopid
 Standard Tuning
 Transcribed by: Steven C.
 h= hammer
 p= pull
 /= slide down



 Guitar 1
e:-------0-----------0--------|--------0-----------0-----2---------|
B:0-0-2-----2--0--2-----2--0--|-0-0-2-----2--0--2-----2------------|
G:----------------------------|------------------------------------|
D:----------------------------|------------------------------------|
A:----------------------------|----------------------------12/-----|
E:----------------------------|--------------------------------12/-|
  Repeat this once, then the baseline.

[ Tab from: http://www.guitartabs.cc/tabs/s/slightly_stoopid/fire_shot_tab.html ]
  You need to listen to it to get the timing right, but it's not too hard.
  Guitar 2
e:-------------------------------------------------------------------------|
B:-------------------------------------------------------------------------|
G:-----------x-------------------------------------------------------------|
D:-----------x-------------------------------------------------------------|
A:7-7--------x--------------6-----6h7--------------------------------------|
E:-----0--0--x--7--7-7-7-7-----7-------------------------------------------|
  Repeat this once, then put them together.


  After the first few measures, a plain B chord is played on every 2&4 instead
							of the high notes:
e:------------x------------x-------------------------------------------------|
B:------------7------------7---------------------------------------9---------|
G:------------8------------8---------------------------------------9---------|
D:------------9------------9---------------------------------------9---------|
A:------------9------------9---------------------------------------7---------|
E:------------7------------7-------------------------------------------------|
        1     2     3      4        Every four measures there is an E barre chord
							instead of B.

  
  Right when they sing S-T-Double O-P This is played:
e:-----------------------------------------------------------------|
B:-----------------------------------------------------------------|
G:----------9-----8------------6-----6-----------------------------|
D:---6-9----------9------------7-----7-----------------------------|
A:7------7--------9------------7-----7------6h7p6---6-7-9----------|
E:-------------7-----7--5h7-5-----5----7--7-------7----------------|
  He does quite a few variations on this, but that is basically it.



  


Comments