Slightly Stoopid - Devils Door Chords & Tabs

 

Devils Door Chords & Tabs

Slightly Stoopid Chords & Tabs

Version: 1 Type: Tab 0 ratings
1 star 2 stars 3 stars 4 stars 5 stars
comments

Devils Door Tab

   
DEVILSDO.TAB

This TAB transcription was created using TAB MASTER version 1.0
If you enjoy using this program, please consider telling the author
about it: Ofir Zwebner, e-mail: ofirz1@ccsg.tau.ac.il
                    snail-mail: Ehoud 10, Tel Aviv, 69936, Israel

This program is freeware, but it took me some work to make it, so
your financial contribution is welcome.

--------------------------------------------------------------------

  Title: Devil's Door
  Artist: Slightly Stoopid
  Transcribed by: Steven C.
  h= hammer
  p= pull off



  This background is played throughout the entire song:
e:-------------5--5---|
B:---5--5------5--5---|
G:---5--5------5--5---|
D:---5--5------4--4---|
A:---4--4---5--5--5---|
E:5--5--5-------------|



[ Tab from: http://www.guitartabs.cc/tabs/s/slightly_stoopid/devils_door_tab.html ]
  After one time through, this starts on the second guitar, and loops.
e:--------------------------------------------------------|
B:--------------------------------------------------------|
G:--------------------------------------------------------|
D:--------------------------------------------------------|
A:----5--3---0--3--5---3--0--0--5--3-----5----------------|
E:-5-----------------------------------5---2--3--4--4--5--|
     Repeat this once, then the next part:




e:---------------------------------------------------------|
B:---------------------------------------------------------|
G:---------------------------------------------------------|
D:------------------------4-4--5--6--7---------------------|
A:---5--3------3h5p3---------------------------------------|
E:5----------5--------5-5----------------------------------|
    This entire thing is repeated throughout the song.

Comments