Slightly Stoopid - Cool Down Chords & Tabs

 

Cool Down Chords & Tabs

Slightly Stoopid Chords & Tabs

Version: 3 Type: Tab 0 ratings
1 star 2 stars 3 stars 4 stars 5 stars
comments

Cool Down Tab

Artist: Slightly Stoopid
Song: Cool Down
 
 
Guitar 1(Bassline):
	 !			    !
E-------------------------------4--4------------------
A----6--6-----------6--4--6------------------6--4--6--
D-----------5-5-5---------------------6-6-6----------- 
G-----------------------------------------------------
B-----------------------------------------------------
e-----------------------------------------------------
	!			 !
E---6--6---------------------4--4---------------
A---------------8--6--8-----------------6--4--5-
D--------8-8-8--------------------6-6-6---------   repeat
G-----------------------------------------------
B-----------------------------------------------
e-----------------------------------------------
Guitar 2 (Rhythm played all in upstrokes):
E-------------------------4----------------6-----------4----------
A--------6----------------6----------------8-----------6----------
D--------8----------------6----------------8-----------6----------
G--------8----------------5----------------7-----------5---------- 
B--------8----------------4----------------6-----------4----------
e--------6----------------4----------------6-----------4----------
 
Thatís pretty much the song. The exclamation points are where the second 
guitar does the upstroke. The intro is the same chords with variations from 
the first guitar, and also some variations on the bass line 
which I havenít quite figured out yet. Check for lyrics elsewhere, I donít want 
to write them.
[ Tab from: http://www.guitartabs.cc/tabs/s/slightly_stoopid/cool_down_tab_ver_3.html ]
Comments