Slightly Stoopid - Cool Down Chords & Tabs

 

Cool Down Chords & Tabs

Slightly Stoopid Chords & Tabs

Version: 2 Type: Tab 0 ratings
1 star 2 stars 3 stars 4 stars 5 stars
comments

Cool Down Tab

   
COOLDOWN.TAB

This TAB transcription was created using TAB MASTER version 1.0
If you enjoy using this program, please consider telling the author
about it: Ofir Zwebner, e-mail: ofirz1@ccsg.tau.ac.il
                    snail-mail: Ehoud 10, Tel Aviv, 69936, Israel

This program is freeware, but it took me some work to make it, so
your financial contribution is welcome.

--------------------------------------------------------------------

  Title: Cool Down
  Artist: Slightly Stoopid
  Transcribed by: Steven C.
  /= slide up
  


e:-------2------------3/5---------0-----------------3/5-------|
B:---3-----3----3-----3/5--3/5------2-------2-------3/5--3/5--|
G:-----2------2------------3/5--------2---2---2----------3/5--|
D:0-------------------------------------2---------------------|
A:------------------------------0-----------------------------|
E:-----------------3-----------------------------3------------|


                                                        

[ Tab from: http://www.guitartabs.cc/tabs/s/slightly_stoopid/cool_down_tab_ver_2.html ]
e:----------14------2-----2-------5-----5-------3---0--|
B:--------15--15------3-----3-------5-----5-----3---2--|
G:------14--------------2-------------6-----6---0---2--|
D:-0--0-----------0---------------------------7-0---2--|
A:----------------------------------------------2---0--|
E:------------------------------5---------------3------|




   Palm mute here
e:---------------------------------------------------------------------------|
B:---------------------------------------------------------------------------|
G:---------------------------------------------------------------------------|
D:0-0--4-4-4--2--0--2------5-5-5-5-5--2--4-------7-7-7-7--4--5------5-5-5-5-5|
A:------------------------------------------0-0------------------------------|
E:---------------------3-3--------------------------------------3-3----------|

  This part plays throughout the rest of the song, with the other guitar pumping 
  D, G, and A Barre chords.
           
           
           
e:--------|
B:--------|
G:--------|
D:--4--2--|
A:--------|
E:--------|


Comments