Slick Shoes - Parting Ways Chords & Tabs

 

Parting Ways Chords & Tabs

Slick Shoes Chords & Tabs

Version: 1 Type: Bass Tab 0 ratings
1 star 2 stars 3 stars 4 stars 5 stars
comments

Parting Ways Bass Tab

Song: Parting Ways      
Band: Slick Shoes
Album: Burn Out
tabbed by: Brad Schmitt




G:----------------------|--------------------------------------------
D:----------------------|--------------------------------------------
A:----5---7---10---12---|----5---7---9--------(this part may be wrong)
E:----------------------|----------------5----(play only once I think)

[ Tab from: http://www.guitartabs.cc/tabs/s/slick_shoes/parting_ways_btab.html ]
G:------------------------------------------------------------------
D:---------------5---4---0------------------------------------------
A:---5---4----------------------------------------------------------
E:-----------3------------------------------------------------------


G:------------------------------------------------------------------
D:------------------------------------------------------------------
A:---5---4---2---0---------------------------0------(fill on next line)
E:-------------------3---2---0---3---2---3--------------------------


G:------------------------------------------------------------------
D:----5---7---9---7---5---4-----------------------------------------
A:------------------------------------------------------------------
E:------------------------------------------------------------------




Comments