Slick Shoes - Nows The Time Chords & Tabs

 

Nows The Time Chords & Tabs

Slick Shoes Chords & Tabs

Version: 1 Type: Bass Tab 0 ratings
1 star 2 stars 3 stars 4 stars 5 stars
comments

Nows The Time Bass Tab

Slick Shoes
Now's The Time
tabbed by daniel182

this song is really good, its fun to play...please rate this tab, thanks!

intro(come in second time round)
|----------------------------------------|
|-----------------222-33-33-222----------|
|-55-55-000-11-11--------------33-33-000-|x1
|----------------------------------------|

verse 1
|-----------------------------------|
|-----------------------------------|
|-55555555-11111111--------33333333-|x4
|------------------11111111---------|

chorus
|----------------------------------------|
|-----------------222-33-33-222----------|
|-55-55-000-11-11--------------33-33-000-|x2
|----------------------------------------|
[ Tab from: http://www.guitartabs.cc/tabs/s/slick_shoes/nows_the_time_btab.html ]
verse 2
|-----------------------------------|  |----------------------------|
|-----------------------------------|  |---------------33-33-3------|
|-55555555-11111111--------33333333-|x2|-55-55-5--11-11-------33-33-|x1
|------------------11111111---------|  |----------------------------|

|--------------------------------|
|---------------33-33-3----------|
|-55-55-5--11-11-------3333--7-5-|x1
|--------------------------------|

chorus
|----------------------------------------|
|-----------------222-33-33-222----------|
|-55-55-000-11-11--------------33-33-000-|x2
|----------------------------------------|

bridge(listen real carefully for timing)
            (01:49)
|--------|  |----------------------------|
|--------|  |-8h10p8-7-8---10-8-7-8-7----|
|-5~~~~~-|x1|------------------------8-7-|x2
|--------|  |----------------------------|

chorus(dont play first time round)
|----------------|
|----------------|
|-55----33333333-|x1
|----------------|

then...
|----------------------------------------|  |-------|
|-----------------222-33-33-222----------|  |-------|
|-55-55-000-11-11--------------33-33-000-|x3|-55555-|x1
|----------------------------------------|  |-------|

thats it! please rate this tabe, thanks!
Comments