Slick Shoes - Learn To Unlearn Chords & Tabs

 

Learn To Unlearn Chords & Tabs

Slick Shoes Chords & Tabs

Version: 2 Type: Bass Tab 0 ratings
1 star 2 stars 3 stars 4 stars 5 stars
comments

Learn To Unlearn Bass Tab

Song: Learn to Unlearn
Band: Slick Shoes
Album: Burn Out
tabbed by: Brad Schmitt (cmfgsf@aol.com)




G:----------------------|----------------------------------------
D:----------------------|----------------------------------------
A:----------------------|---3---5--------------------------------
E:---3----5----6----3---|-----------6----------------------------


G:---------------------------------------------------------------
D:---------------------------------------------------------------
A:---5---------------4(second time)---5--------------------------
E:-------6---3---5-----------------------------------------------

[ Tab from: http://www.guitartabs.cc/tabs/s/slick_shoes/learn_to_unlearn_btab_ver_2.html ]
G:------------------------SCARY-THING----------------------------
D:---------------------------------------------------------------
A:----5---7---8---4---0---5---7---8---0--------------------------
E:---------------------------------------------------------------


G:----------------|----------------------------------------------
D:----------------|----------------------------------------------
A:---5------------|----------------5---------------4---5---------
E:-------5---6----|----6---3---5-------6---3---5-----------------


G:---------------------------------------------------------------
D:---------------------------------------------------------------
A:---5---8---3---------------------------------------------------
E:---------------------------------------------------------------




Comments