Slick Shoes - I Knew Chords & Tabs

 

I Knew Chords & Tabs

Slick Shoes Chords & Tabs

Version: 1 Type: Bass Tab 0 ratings
1 star 2 stars 3 stars 4 stars 5 stars
comments

I Knew Bass Tab

   
I Knew - Slick Shoes - 2002 Tooth and Nail Records
Tabbed by: PunkRawkDoogy - toddj@ncssm.edu

*Play 16 times

Intro (0:00)
G-----------------------------------------------------------
D-----------------------------------------------------------
A-3-3-3-3-5-5-5-5-5-2-2-2-2-2-0h7-0h7-9-5-3-3-3-3-5-5-5-5-5-
E-----------------------------------------------------------

Verse (0:08)
G-------------------------
D-------------------------
A----------3*----------3*-
E-3*-2*-0*----3*-2*-0*----

Chorus (0:28)
G-----------------------------------------------------------------
D-----------------------------------------------------------------
A-3-3-3-3-5-5-5-5-5-2-2-2-2-2-0h7-0h7-9-5-3-3-3-3-5-5-5-5-5-------
E-----------------------------------------------------------3*-2*-

G-----------------------------------------------------------
D-----------------------------------------------------------
A-3-3-3-3-5-5-5-5-5-2-2-2-2-2-0h7-0h7-9-5-3-3-3-3-5-5-5-5-5-
E-----------------------------------------------------------

Verse (0:47)
G-------------------------
D-------------------------
A----------3*----------3*-
E-3*-2*-0*----3*-2*-0*----

Chorus (1:06)
G-----------------------------------------------------------------
D-----------------------------------------------------------------
A-3-3-3-3-5-5-5-5-5-2-2-2-2-2-0h7-0h7-9-5-3-3-3-3-5-5-5-5-5-------
E-----------------------------------------------------------3*-2*-
[ Tab from: http://www.guitartabs.cc/tabs/s/slick_shoes/i_knew_btab.html ]
G-----------------------------------------------------------
D-----------------------------------------------------------
A-3-3-3-3-5-5-5-5-5-2-2-2-2-2-0h7-0h7-9-5-3-3-3-3-5-5-5-5-5-
E-----------------------------------------------------------

 
Breakdown (1:25)
G-----------------------------------------------------------------
D-----------------------------------------------------------------
A------------------55-555-555-555-5----------------77-777-755-599-
E-333-333-333-333-3----------------55-555-555-555-5---------------

G-----------------------------------------------------------------
D-----------------------------------------------------------------
A------------------55-555-555-555-5----------------77-777-755-599-
E-933-333-333-333-3----------------55-555-555-555-5---------------

(1:45)
G-----------------------------------------------------------------
D-----------------------------------------------------------------
A------------------55-555-555-555-5----------------77-777-755-555-
E-933-------------3----------------55-------------5---------------

Prechorus (1:54) - Ryan comes back in
G-------------
D-------------
A----------3*-
E-3*-2*-0*----

Chorus (2:04)
G-----------------------------------------------------------------
D-----------------------------------------------------------------
A-3-3-3-3-5-5-5-5-5-2-2-2-2-2-0h7-0h7-9-5-3-3-3-3-5-5-5-5-5-------
E-----------------------------------------------------------3*-2*-

G-----------------------------------------------------------
D-----------------------------------------------------------
A-3-3-3-3-5-5-5-5-5-2-2-2-2-2-0h7-0h7-9-5-3-3-3-3-5-5-5-5-5-
E-----------------------------------------------------------

Ending (2:23)
G-----------
D-----------
A-----------
E-333333333- Let the 3 ring.
Comments