Slick Shoes - Good Intentions Chords & Tabs

 

Good Intentions Chords & Tabs

Slick Shoes Chords & Tabs

Version: 1 Type: Tab 0 ratings
1 star 2 stars 3 stars 4 stars 5 stars
comments

Good Intentions Tab

   
Band: Slick Shoes
Song: Good Intentions
Tabbed:  Mike D.

Standard tuning

*KEY*
*-harmonics
()-let ring
/-slide up
\-slide down
p.m.-palm mute

Intro:
e-------------------------------------------------------
B-------------------------------------------------------
G---(9)--9\(7)--7/(9)--9\(7)--7/(9)--9/(12)\(11)\(7)-/--
D---(9)--7\(7)--7/(9)--9\(7)--7/(9)--9/(12)\(11)\(7)-/--
A---(7)--7\(5)--5/(7)--7\(5)--5/(7)--7/(10)\( 9)\(5)-/--
E-------------------------------------------------------

intro (cont.)
e----------------------------------------
B----------------------------------------
G---(9)--9\(7)--7/(9)--9/(12)\(11)\(7)---
D---(9)--7\(7)--7/(9)--9/(12)\(11)\(7)---  <~~this looks very complicated but if 
A---(7)--7\(5)--5/(7)--7/(10)\( 9)\(5)---  you use the key and listen to the
E----------------------------------------  song you should be fine...

Why do I do things that hurt you.....
e--------------------------------------------------------
B--------------------------------------------------------
G---xx9x9x9x9x9--xx7x7x7x7x7--xx5x5x5x5x5--xx7x7x7x7x7---
D---xx9x9x9x9x9--xx7x7x7x7x7--xx5x5x5x5x5--xx7x7x7x7x7--- <~x2 (on the second 
A---xx7x7x7x7x7--xx5x5x5x5x5--xx3x3x3x3x3--xx5x5x5x5x5---  time let the last 
E--------------------------------------------------------  chord ring..)
    p.m. ~~~~~~~~~~~~~~~~~~~~~~~~~~~~~~~~~~~~~~~~~~~~>

then....
e--------------------------------------------
B--------------------------------------------
G---12-11-12-14--12-12-12/14-14/16-16\14\11--
D----x--x--x--x---x--x--x/-x--x/-x--x\-x\-x-- <~~x4
A---10--9-10-12--10-10-10/12-12/14-14\12\-9--
E--------------------------------------------

why must my heart be so corrupt....
e------------------------------------------------------
B------------------------------------------------------
G-----------------------------------55555-44444-22222--
D---22222-55555-44444-55577---22222-55555-44444-22222--
A---22222-55555-44444-55577---22222-33333-22222-00000--
E---00000-33333-22222-33355---00000--------------------  (cont.) see next figure

(cont.)..you show your....
e-------------------------------------------------------
B-------------------------------------------------------
G---------77777-44444-55555---------55555-44444-77777---
D---55555-77777-44444-55555---55555-55555-44444-77777---
A---55555-55555-22222-33333---55555-33333-22222-55555---
E---33333---------------------33333---------------------
[ Tab from: http://www.guitartabs.cc/tabs/s/slick_shoes/good_intentions_tab.html ]
you open your scarred hands...
e--------------------------------------------
B--------------------------------------------
G---12-11-12-14--12-12-12/14-14/16-16\14\11--
D----x--x--x--x---x--x--x/-x--x/-x--x\-x\-x-- <~~x4
A---10--9-10-12--10-10-10/12-12/14-14\12\-9--
E--------------------------------------------

Bridge
e----------------------------------------------------------------------------
B----------------------------------------------------------------------------
G------9------7------5------7----*5----------*5--------*5----------*5--------
D----5-9----5-7----5-5--5---7------*5--*7--*5--*5--*7----*5--*7--*5--*5--*7--
A--7---7--5---5--3---3----5-5------------------------------------------------
E-------------------------------------*use harmonics for this part*----------

bridge cont.
D---------------------------------------------------------------------------
A--101010-9h10-999-777-9910101212999--101010-9h10-999-555-777-9910101212999-
E---------------------------------------------------------------------------
   p.m.~~~~~~~~~~~~~~~~~~~~~~~~~~~~~~~~~~~~~~~~~~~~~~~~~~~~~~~~~~~~~~~~~~~>
the number of times these notes are hit are not correct it would 
have taken up to much space to write it all out so listen to the 
song for exact timing...

e----------------------------------------
B----------------------------------------
G-1212x1212x1212x1212x1211/12\1111x1111\
D--x-xx-x-xx-x-xx-x-xx-x-x/-x\-x-xx-x-x\
A-1010x1010x1010x1010x10-9/10\-9-9x-9-9\  
E----------------------------------------                           
(cont.)
e--------------------------------------------------
B--------------------------------------------------
G--77x77x77x77x7x7\55x55x55x55x5x5/99x99\77x77x7x7-
D--xxxxxxxxxxxxxxx\xxxxxxxxxxxxxxx/xxxxx\xxxxxx7xx-
A--55x55x55x55x5x5\33x33x33x33x3x3/77x77\55x55x5x5- <~X2 i think... 
E--------------------------------------------------

outro
e--------------------------------------------------
B--------------------------------------------------
G--12121212121212-11111111111111-77777777----------
D--12121212121212-11111111111111-77777777----------
A--10101010101010--9-9-9-9-9-9-9-55555555----------
E--------------------------------------------------

well thats it hope i didnt confuse you!! its really not that hard 
it just looks it!  if you dont know a whole lot about slick shoes 
get to know them!!! they are an awesome punk band!!! so go check em 
out ok?  any questions or comments ...email mike at punkfreak8@aol.com..thanx!
Comments