Slick Shoes - For Better For Worse Chords & Tabs

 

For Better For Worse Chords & Tabs

Slick Shoes Chords & Tabs

Version: 1 Type: Tab 0 ratings
1 star 2 stars 3 stars 4 stars 5 stars
comments

For Better For Worse Tab

intro guitar:
[ Tab from: http://www.guitartabs.cc/tabs/s/slick_shoes/for_better_for_worse_tab.html ]
e---------------------------------------------
b---------------------------------------------
g---------------------------------------------
d-----5---3-2---3---3-3-------0-2---2---2-2---
a--3-3-3-3-3-3-3-3-3-3----3-------------------
E----------------------1-1-1-1-1-1-1-1-1-1----



e---------------------------------------------
b---------------------------------------------
g-----5---4----------------5---4-5---5---4-5--
d-----------5---5---5-5-3-3-3-3-3-5-5-5-5-5---
a--0-0-0-0-0-0-0-0-0-0------------------------
E---------------------------------------------

4 shizzle.
Comments