Sleepy Jackson - Come To This Chords & Tabs

 

Come To This Chords & Tabs

Sleepy Jackson Chords & Tabs

Version: 1 Type: Tab 0 ratings
1 star 2 stars 3 stars 4 stars 5 stars
comments

Come To This Tab

   
Artist:The Sleepy Jackson
Song:Come to This
Album:Lovers
From Australia, the Sleepy Jackson Website: http://www.thesleepyjackson.com


Intro:

e|----------------------------|
B|----------------------------|
G|-0-0-0-0-0---0-0-0-0-0-0----| 
D|-0-0-0-0-0---0-0-0-0-0-0----|   x2
A|-2-2-2-2-0---2-2-2-2-2-0----|
E|-3-3-3-3-0---3-3-3-3-3-0----|

[ Tab from: http://www.guitartabs.cc/tabs/s/sleepy_jackson/come_to_this_tab.html ]
Chords used in verses:
    Em   D   C   G
e|---0---2---0---3---|
B|---0---3---1---3---|
G|---0---2---0---0---|
D|---2---0---2---0---|
A|---2---0---3---2---|
E|---0---0---0---3---|


Chorus:
     
e|---2-2-2-22-3-3-3-33-0-0-------|
B|---3-3-3-33-3-3-3-22-1-0-------|
G|---2-2-2-22-2-2-2-33-0-0-2-0---|
D|---0-0-0-00-0-0-0-00-2-2-----2-|
A|---0-0-0-00-0-0-0-00-3-3-------|
E|---0-0-0-00-x-x-x-xx-0-0-------|


Tabbed by: Johnson Ta
Comments