Sleater-kinney - A Quarter To Three Chords & Tabs

 

A Quarter To Three Chords & Tabs

Sleater-kinney Chords & Tabs

Version: 1 Type: Tab 0 ratings
1 star 2 stars 3 stars 4 stars 5 stars
comments

A Quarter To Three Tab

A Quarter to Three
Sleater-Kinney
The Hot Rock
tabbed by joel (ironcladjoel@yahoo.com)


GUITAR 1                                             GUITAR 2

...it's one a.m. ...
...should i be up ...
e|4-------------4--------------------------|           e|----------------------------|
B|--5\2-2-2-------5\2-2-2-2-0/2-2----------|           B|----------------------------|
G|--------------------------------1-2-1----|           G|----------------------------|
D|-----------------------------------------| 4X        D|----------------------------| 12X
A|-----------------------------------------|           A|-------------2-2------------|
E|-----------------------------------------|           E|5--5--5-5--2-----2--2-2-2---|




...and the photo booth strip...
...and my confidence fell...
e|-------------------------|
B|-------------------------|
G|------4------------------|
D|--6--------6---6-6-------| 2x
A|4---4----4---4-----7-4-4-|
E|-------------------------|




...feel like nothing...
...tell me whose side...
e|4--------------------------|
B|--5------------------------|
G|----6--4-6-4--2-4-2--------|
D|--------------------4-6-2--| 2x
A|---------------------------|
E|---------------------------|


[ Tab from: http://www.guitartabs.cc/tabs/s/sleater_kinney/a_quarter_to_three_tab.html ]
...nothing bad...
e|-----------|
B|-----------|
G|6----9-----|
D|-------6---| 4x
A|--7--------|
E|-----------|




...going to bed ...
...going to pieces...
e|-----------------------------------------------------|
B|-----------------------------------------------------|
G|6-4-6-4-6-4-6/9-9-11-9-11-9---6-4-6-4-6-4---4--------|
D|------------------------------------------6---6-4-2--| 2x
A|-----------------------------------------------------|
E|-----------------------------------------------------|


interlude
e|-------------------------|    
B|-------------------------|    
G|-------------------------|    
D|--6-------9-----6--------| 2x  (this part i couldn't figure out, this is  
A|4---4-4/7---7/9---9-7-4--|      as close as i could get it for now)
E|-------------------------|


solo
e|------12-------------------------------|    |-----------------------------------|
B|12-12----12-14\12-12-------------------|    |------10----12-10----10------------|
G|---------------------------------------|    |13-13----13-------13----13----9-9--|
D|---------------------14-14-14-14-14-14-| 2x |---------------------------11------| 2x
A|---------------------------------------|    |-----------------------------------|
E|---------------------------------------|    |-----------------------------------|

if someone finishes it please mail me--thanks--
Comments