Slayer - Witching Hour Chords & Tabs

 

Witching Hour Chords & Tabs

Slayer Chords & Tabs

Version: 1 Type: Bass Tab 0 ratings
1 star 2 stars 3 stars 4 stars 5 stars
comments

Witching Hour Bass Tab

   
Band- Slayer
Song- Witching Hour

Eb Tuning

Riff A

|--------------------------------------------|
|--------------------------------------------|
|7---5---7-----------------------------------|
|------------0-0-0-0-0-0-0-0-0-0-0-0-0-0-0-0-|


Riff B

|-------------------------------------------|
|-------------------------------------------|
|-------------------------------------------|
|7---7--7---7--7---7--7--6--5---5--5---5--5-|
[ Tab from: http://www.guitartabs.cc/tabs/s/slayer/witching_hour_btab.html ]
|--------------------------------------|
|--------------------------------------|
|--------------------------------------|
|5--5--4--3---3--3---3--3---3--3--2--1-|


Riff C

|-----------------------------------------------------|
|------------------------7--6-------------------------|
|7-7-7-7-7-7-7-7-7-7-7-7------5-5-5-5-5-5-5-5-5-5-5-5-|
|-----------------------------------------------------|

|------------------------------------------------------|
|5--4--------------------------------------------------|
|-----3-3-3-3-3-3-3-3-3-3-3-3--5-5-5-5-5-5-5-5-5-5-5-5-|
|------------------------------------------------------|
Comments