Slayer - Wicked Chords & Tabs

 

Wicked Chords & Tabs

Slayer Chords & Tabs

Version: 1 Type: Bass Tab 0 ratings
1 star 2 stars 3 stars 4 stars 5 stars
comments

Wicked Bass Tab

   
Band- Slayer
Song- Wicked

Tuning: C# Ab Db Gb 

Intro: Guitar

Intro A:
|---------------------------------|
|---------------------------------|
|---------------------------------|
|--0--1--3--1--0--1--0--3--2---6--|

Intro B:
|------------------------|
|------------------------|
|------------------------|
|--0-0-0-0-0-0-0-0-0-----|

Verse A:
|-------------------------------------|
|-------------------------------------|
|-------------------------------------|
|--0--0--0--0--0--0--0--0--0--0--0----|

Verse B:
|-------------------------------------|
|------------------------8-8-7--------|
|------0-0-0-----5-5-4----------------|
|--0----------6-----------------------|
 

Verse C:
                          The wicked will feed the chaos...
|---------------------------------------------------------|----------|
|---------------------------------------------------------|----------|
|---------------------------------------------------------|----------|
|--0--1--3--1--0--1--1--0--0--0--0--0--0--0--0--0-0--1--0-|-1--0--7--|

Verse B:

   ...blow to the throat...
|-------------------------------|
|-------------------------------|
|-------------------------------|
|--0-0-0-0-0-0-0-0-0-0-0-0-0-0--|

[ Tab from: http://www.guitartabs.cc/tabs/s/slayer/wicked_btab.html ]
Riff A:
|------------------------------------------|
|------------------------------------------|
|-----0-0--------------0-0------6-5--------|
|--0-------6---2----0-------6--------------|

|------------------------------------------|
|------------------------------------------|
|-----0-0--------------0-0------3--5-6-5---|
|--0-------6---2----0-------6--------------|

                          2 times
|------------------|-------------6-5--------|
|------------------|-----------------6-5----|
|-----0-0----------|----0-0---------------6-|
|--0-------6---2---|-0-------6--------------|

Verse C:

Solo:                       
|---------------------------|------------|
|---------------------------|------------|
|---------------------------|------------|
|1--0-0-0-0-0-0-0-0-0-0-1-0-|-1--0-0--7--|

Verse D: x2 then D1 Only
D1
|-------------------------------------|
|------------------------8-8-9-7------|
|------0-0-0-----5-5-5-4--------------|
|--0----------6-----------------------|
D2
|----------------------------------------------|
|----------------------------------------------|
|----------------------------------------------|
|--1--1--1--1--1--1--1--1--1--4--3--0----------|

Verse E:
|-----------------------------|
|-----------------------------|
|-----------------------------|
|---7--3--2--1-1-1------------|

Riff D2:
Riff D1:
Riff D2:
Riff D1:

Verse E:

Riff F:
|-----------------------------|
|-----------------------------|
|-----------------------------|
|--3-3-3--6-6-6--9-9-9--------|

Verse D:
Verse E:
Comments