Slayer - What Were All About Chords & Tabs

 

What Were All About Chords & Tabs

Slayer Chords & Tabs

Version: 1 Type: Bass Tab 0 ratings
1 star 2 stars 3 stars 4 stars 5 stars
comments

What Were All About Bass Tab

Band- Slayer
Song- What We're All About

Intro
G:-------------------------------------------------------------|
D:-------------------------------------------------------------|
A:-------------------------------------------------------------|x1
E:-2222222222222222222222222222222222222222222222222---2---2---|

Verse 1
G:-------------------|  |-------------------|
D:-------------------|  |-------------------|
A:-------------------|x1|-------------------|x3
E:-22-2/55-5/77-5/77-|  |-22-2/55-5/77------|

G:-------------------|  |-------------------|
D:-------------------|  |-------------------|
A:-------------------|x1|-------------------|x1
E:-22-2/55-5/77-5/77-|  |-22----------------|

G:-------------------|  |-------------------|
D:-------------------|  |-------------------|
A:-------------------|x1|-------------------|x1
E:-22-2/55-5/77------|  |-22------5/77------|

Chorus
G:-----------------|
D:-----------------|
A:-----223-----223-|x4
E:-225-----225-----|

Verse 2
G:-------------------|  |-------------------|
D:-------------------|  |-------------------|
A:-------------------|x1|-------------------|x1
E:-22------5/77-5/77-|  |-22-2/55-5/77------|
[ Tab from: http://www.guitartabs.cc/tabs/s/slayer/what_were_all_about_btab.html ]
G:-------------------|  |-------------------|
D:-------------------|  |-------------------|
A:-------------------|x1|-------------------|x1 
E:-22-2/55-5/77-5/77-|  |-22-2/55-5/77------|

G:-------------------|  |-------------------|
D:-------------------|  |-------------------|
A:-------------------|x1|-------------------|x1
E:-22------5/77------|  |-------------------|

G:-------------------|
D:-------------------|
A:-------------------|x2
E:-22-2/55-5/77------|

Chorus
G:-----------------|
D:-----------------|
A:-----223-----223-|x4
E:-225-----225-----|

Bridge
G:-------------------|  |----------------------------------|
D:-------------------|  |----------------------------------|
A:--------------2222-|x4|----------------------------------|x1
E:-222-0000-555------|  |-2222222222222222-2-2-2-2-2-2-2-2-|

Verse 3
G:-------------------|  |-------------------|
D:-------------------|  |-------------------|
A:-------------------|x1|-------------------|x3
E:-22-2/55-5/77-5/77-|  |-22-2/55-5/77------|

G:-------------------|  |-------------------|
D:-------------------|  |-------------------|
A:-------------------|x1|-------------------|x1
E:-22------5/77------|  |-22-2/55-5/77------|

G:-------------------|  |-------------------|
D:-------------------|  |-------------------|
A:-------------------|x1|-------------------|x1
E:-22-2/55-5/77-5/77-|  |-22-2/55-5/77------|

Final Chorus
G:-----------------|  |----|
D:-----------------|  |----|
A:-----223-----223-|x8|----|x1
E:-225-----225-----|  |-2.-|
Comments