Slayer - War Zone Chords & Tabs

 

War Zone Chords & Tabs

Slayer Chords & Tabs

Version: 1 Type: Tab 0 ratings
1 star 2 stars 3 stars 4 stars 5 stars
comments

War Zone Tab

Intro:

E[----------------------------------------------------------------------]
B[----------------------------------------------------------------------]
G[----------------------------------------------------------------------]x2
D[----------------------------------------------------------------------]
A[--987-987-987--987-987-987--987-987-987--987-987--12-10---------------]
E[--765-765-765--765-765-765--765-765-765--765-765--10-8----------------]

      Repeat This Part Once
E[----------------------------------------------------------------------]
B[----------------------------------------------------------------------]
G[----------------------------------------------------------------------]x3
D[----------------------------------------------------------------------]
A[----------------------------------------------------------------------]
E[-0-7-6-0-6-5-0-5-4-0-4-3-0-3-2----------------------------------------]

   After You Play The Top Part Play This Part Once
E[----------------------------------------------------------------------]
B[----------------------------------------------------------------------]
G[----------------------------------------------------------------------]x2
D[----------------------------------------------------------------------]
A[-------------------3--------------------------------------------------]
E[-0-7-6-0-6-5-0-5-4-1--------------------------------------------------]

E[----------------------------------------------------------------------]
B[----------------------------------------------------------------------]
G[----------------------------------------------------------------------]
D[----------------------------------------------------------------------]
A[-987-987-987-987-987-987-987-987-987-987-987-987---12-10--------------]
E[-765-765-765-765-765-765-765-765-765-765-765-765---10-8---------------]

Verse:
[ Tab from: http://www.guitartabs.cc/tabs/s/slayer/war_zone_tab.html ]
E[----------------------------------------------------------------------]
B[----------------------------------------------------------------------]
G[----------------------------------------------------------------------]x4
D[----------------------------------------------------------------------]
A[-2-2-2-2-2-2-2-3-2-2--------------------------------------------------]
E[-0-0-0-0-0-0-0-1-0-0--------------------------------------------------]

Before Chorus:

       This Part Is Also The Ending
E[----------------------------------------------------------------------]
B[----------------------------------------------------------------------]
G[----------------------------------------------------------------------]x2
D[----------------------------------------------------------------------]
A[-22222322---22222322---2222232---22222322-----------------------------]
E[-00000100---00000100---0000010---00000100-----------------------------]

Chorus:

   War Zone!!!! War Zone!!!!
E[----------------------------------------------------------------------]
B[----------------------------------------------------------------------]
G[----------------------------------------------------------------------]x2
D[----------------------------------------------------------------------]
A[--987-987-987--987-987-987--987-987-987--12-10------------------------]
E[--765-765-765--765-765-765--765-765-765--10-8-------------------------]

   Madness Is Coming Your Way!!!!!!!
E[----------------------------------------------------------------------]
B[----------------------------------------------------------------------]
G[----------------------------------------------------------------------]
D[----------------------------------------------------------------------]
A[--987-987-987-987-987-987-987--10--11---------------------------------]
E[--765-765-765-765-765-765-765--8---9----------------------------------]
Comments