Slayer - War Ensemble Chords & Tabs

 

War Ensemble Chords & Tabs

Slayer Chords & Tabs

Version: 5 Type: Tab 0 ratings
1 star 2 stars 3 stars 4 stars 5 stars
comments

War Ensemble Tab

SLAYER- WAR ENSEMBLE solo off the album SEASONS IN THE ABYSS
Solo 1-Hanneman
|--17b(1)------------------r\-----|---------------------------------|
 |-x---------------------------0-\-|---------------------------------|
 |x----------------------------0-\-|---------------------------------|
 |---------------------------------|-/7b(1)-r-b(1)-5--10^8^7---------|
 |---------------------------------|--------------------------10^8^7-|
 |---------------------------------|---------------------------------|
 
 |---------------------------------|---------------------------------|
 |---------------------------------|---------------------------------|
 |---------------------------------|---------------------------------|
 |---------------------------------|-----------------.-.-.--7--------|
 |-.--.-.---.-.-.---.-.-.---.-.-.--|-.-.-.---.-.-.---7^8^10----------|
 |-10^8^7---8^7^5---8^6^5---3^5^7--|-5^6^8---7^8^10------------------|
 
 |---------------------------------|---------------------------------|
 |-15-----------------------\------|-/10b(1)-------r/12b(1)-------r\-|
 |-14b(1)-------------------\------|---------------------------------|
 |---------------------------------|---------------------------------|
 |---------------------------------|---------------------------------|
 |---------------------------------|---------------------------------|
 
                                     (-1) (-1) (-1) (-1)
 |---------------------------------|---------------------------------|
 |---------------------------------|---------------------------------|
 |-2b(1)-------2/4b(1)-----r-------|-0-------------------------------|
 |---------------------------------|---------------------------------|
 |---------------------------------|---------------------------------|
 |---------------------------------|---------------------------------|
 
 |---------------------------------|---------------------------------|
 |---------------------------------|---------------------------------|
 |-5^3^2---5^3^2-------------------|---------------------------------|
 |-----------------5^3^2---5^3^2---|---------------------------------|
 |---------------------------------|-5^3^2---5^3^2---5^7^5---9^7^9---|
 |---------------------------------|---------------------------------|
 
 |---------------------------------|---------------------------------|
 |---------------------------------|---------------------------------|
 |-.---.---.-.-.-------------------|---------.---.-----------7---7---|
 |-7-.-7---9^7^9-----------.-.-.---|-.-.-.---7-.-7---9^7^9-----9-----|
 |---9------------.--.-.---7^9^7---|-9^7^9-----9---------------------|
 |----------------10^7^10----------|---------------------------------|
 
 |---------------------------------|---------------------------------|
 |---------------------------------|---------------------------------|
 |-/9b(1)-------r-b(1)--------r----|-9b(1)-------r-b(1)--------------|
 |---------------------------------|---------------------------------|
 |---------------------------------|---------------------------------|
 |---------------------------------|---------------------------------|
 
 |---------------------------------|---------------------------------|
 |-----------------/10b(1)------r\-|-/13b(1)----r\---/15b(1.75)---r\-|
 |-/10b(1)------r\-----------------|---------------------------------|
 |---------------------------------|---------------------------------|
 |---------------------------------|---------------------------------|
 |---------------------------------|---------------------------------|
Solo 2-King
|---------------------------------|---------------------------------|
 |---------------------------------|---------------------------------|
 |---------------------------------|---------------------------------|
 |---------------------------------|---------------------------------|
 |-------+---+-----------+---+-----|-------+---+-----------+---+-----|
 |-0^4^5-8^5-8^5^4^0^4^5-8^5-8^5^4^|-0^4^5-8^5-8^5^4^0^4^5-8^5-8^5^4^|
 
 |---------------------------------|---------------------------------|
 |---------------------------------|---------------------------------|
 |---------------------------------|---------------------------------|
 |---------------------------------|---------------------------------|
 |-------+---+-----------+---+-----|-------+---+-----------+---+-----|
 |-0^3^5-7^5-7^5^3^0^3^5-7^5-7^5^3^|-0^3^5-7^5-7^5^3^0^4^5-8^5-8^5^4^|
 
 |-------------------------------------|-------------------------------------|
 |-------------------------------------|-------------------------------------|
 |-------------------------------------|-------------------------------------|
 |-------------------------------------|-------------------------------------|
 |-------+----+------------+----+------|-------+----+------------+----+------|
 |-0^4^7-10^7-10^7^4^0^4^7-10^7-10^7^4^|-0^4^7-10^7-10^7^4^0^5^8-10^8-10^8^5^|
 
 |-------------------------------------------|
 |-------------------------------------------|
 |-------------------------------------------|
 |-------------------------------------------|
 |--------+-----+--------------+-----+-------|
 |-0^7^10-13^10-13^10^7^0^7^10-13^10-13^10^7^|
 
 |----------------------------------------|---------------------------------|
 |----------------------------------------|---------------------------------|
 |----------------------------------------|-/12-----------------------------|
 |---------------------------15^0^9^12^9\-|---------------------------------|
 |------------------15^0^8^11-------------|---------------------------------|
 |-0^7^10-16^0^10^13----------------------|---------------------------------|
 
 |---------------------------------|----------------------------------------|
 |---------------------------------|-----------13----13--15-13-15--17-15-17-|
 |---------------------------12-14-|-16-14-16-----16------------------------|
 |---------------------------------|----------------------------------------|
 |---------------------------------|----------------------------------------|
 |---------------------------------|----------------------------------------|
 
 |-13----13--15-13-15--17-15-17-----------|-----------------b(1)------------|
 |----17----------------------------------|---------------------------------|
 |----------------------------------------|---------------------------------|
 |----------------------------------------|---------------------------------|
 |----------------------------------------|---------------------------------|
 |----------------------------------------|---------------------------------|
 
 |-r--b(1)--r--b(1)--r--b(1)-----\-|
 |---------------------------------|
 |---------------------------------|
 |---------------------------------|
 |---------------------------------|
 |---------------------------------|
 
 |-------------------------------------------------|
 |-18-18-18-18-18-18-18-18-17-17-17-17-17-17-17-17-|
 |-17-17-17-17-17-17-17-17-16-16-16-16-16-16-16-16-|
 |-------------------------------------------------|
 |-------------------------------------------------|
 |-------------------------------------------------|
 
 |-------------------------------------------------|
 |-15-15-15-15-15-15-15-15-13-------------------13\|
 |-14-14-14-14-14-14-14-14-13-------------------13\|
 |-------------------------------------------------|
 |-------------------------------------------------|
 |-------------------------------------------------|
 
 |-17-17-17-17-17----16-13-17-17-17-17-17----16-13-|
 |-------------------------------------------------|
 |-------------------------------------------------|
 |-------------------------------------------------|
 |-------------------------------------------------|
 |-------------------------------------------------|
 
 |-19-19-19-19-19----17-16-19-19-19-19-19----17-16-|
 |-------------------------------------------------|
 |-------------------------------------------------|
 |-------------------------------------------------|
 |-------------------------------------------------|
 |-------------------------------------------------|
 
 |-16-16-16-16-16----13-12-16-16-16-16-16----13-12-|
 |-------------------------------------------------|
 |-------------------------------------------------|
 |-------------------------------------------------|
 |-------------------------------------------------|
 |-------------------------------------------------|
 
 |-16-13----12-------------------------------------|
 |----------------15-13----12----------------------|
 |-------------------------------14---\------------|
 |-------------------------------------------------|
 |-------------------------------------------------|
 |-------------------------------------------------|
 
 |----------------------------------------|
 |----------------------------------------|
 |----------------------------------------|
 |-------------------------------12----12-|
 |-----------12----12--15-12-15-----15----|
 |-15-12-15-----15------------------------|
 
 |----------------------------------------|-12--------------12--------------|
 |-------------------------------13----13-|-15b(1)----------15b(1)----------|
 |-----------12----12--14-12-14-----14----|---------------------------------|
 |-14-12-14-----14------------------------|---------------------------------|
 |----------------------------------------|---------------------------------|
 |----------------------------------------|---------------------------------|
 
                                    (Fifth verse starts here)
 |-17-------------19---------------|-22b(1)--------------------------|
 |-20b(1)---------22b(1)-----------|---------------------------------|
 |---------------------------------|---------------------------------|
 |---------------------------------|---------------------------------|
 |---------------------------------|---------------------------------|
 |---------------------------------|---------------------------------|
[ Tab from: http://www.guitartabs.cc/tabs/s/slayer/war_ensemble_tab_ver_5.html ]
Comments