Slayer - War Ensemble Chords & Tabs

 

War Ensemble Chords & Tabs

Slayer Chords & Tabs

Version: 4 Type: Tab 0 ratings
1 star 2 stars 3 stars 4 stars 5 stars
comments

War Ensemble Tab

slayer
war ensemble


Fig. 1
|--------------------------------------------------
|--------------------------------------------------
|--------------------------------------------------
|-------------------------8---7--------------------
|-------------------------8---7--------------------
|-3100003100003100003100006---5---3100003100003100-
  |__||__||__||__||__||__|        |__||__||__||__|

|------------------
|------------------
|------------------
|------------------
|-----2-1-------1--
|-0-3-----0-3-1----
 Repeat 3 times, with last time ending like this:

|------------------
|------------------
|------------------
|------------------
|-----2-1----------
|-0-3-----0-3-2-1--

Fig. 2
|---------------------------------------------------
|---------------------------------------------------
|---------------------------------------5-4-----6-5-
|-2-----5-4-----6-5-----9-8---8---2-----5-4-----6-5-
|-2-----5-4-----6-5-----9-8---8---2-----3-2-----4-3-
|-0---0-3-2---0-4-3---0-7-6---6---0---0-------0-----

|--------------------------------------------------
|--------------------------------------------------
|----9-8---8---------------------------------------
|----9-8---8---2-----5-4-----6-5-----9-8---8---2---
|----7-6---6---2-----5-4-----6-5-----9-8---8---2---
|--0-----------0---0-3-2---0-4-3---0-7-6---6---0---

|-----------------------------
|-----------------------------
|---6-5-----7-6-----9-8---8---
|---6-5-----7-6-----9-8---8---
|---4-3-----5-4-----7-6---6---
|-0------0-------0------------
[ Tab from: http://www.guitartabs.cc/tabs/s/slayer/war_ensemble_tab_ver_4.html ]
Fig. 3
|--------------------------------------------------
|--------------------------------------------------
|--------------------------------------------------
|--------------------------------------------------
|-3-----3-----3---6-----6-----6---5-----5-----5---4
|---3333--3333--3---3333--3333--3---3333--3333--3--

|---------------
|---------------
|---------------
|---------------
|-----4-----4---
|-3333--3333--3-


Fig. 4
|-------------------------------------------------
|-------------------------------------------------
|-------------------------------------------------
|-4-------------7-5-------------2-4-------------7-
|-4-------------7-5-------------2-4-------------7-
|-2-2222222222225-3-3333333333330-2-2222222222225-
  |__||__||__||_  |__||__||__||__ |__||__||__||__

|------------------
|------------------
|------------------
|-5-------3--------
|-5-------3--------
|-3-3333331-111111-
  |__||__||__||__|

Fig. 5                                 1       2       3
|-------------------------         |-----------------------
|-------------------------         |-----------------------
|-------------------------         |-----------------------
|---8-7------------------/  chord  |-5-7-8---5-8-6---8-6-5-
|---8-7---6-5---8-7---7-6/ changes |-5-7-8---5-8-6---8-6-5-
|-0-----0-6-5-0-8-7-0-7-6/   are:  |-3-5-6---3-6-4---6-4-3-

   4
|--------
|--------
|--------
|--3---3-
|--3---3-
|--1-0-1-


Fig. 6
|--------------------------------------------------
|--------------------------------------------------
|--------------------------------------------------
|--------------------------------------------------
|-2-----2-----2---5-----5-----5---4-----4-----4----
|---0000--0000--0---0000--0000--0---0000--0000--0--

|-------------------
|-------------------
|-------------------
|-------------------
|-3-----3-------3---
|---0000--3-0000--0-


Fig. 7
|---------------------------
|---------------------------
|---------------------------
|-3-2---2---2---2---2---2---
|-3-2---2---2---2---2---2---
|-1-0-0-0---0---0---0---0---
Comments