Slayer - War Ensemble Chords & Tabs

 

War Ensemble Chords & Tabs

Slayer Chords & Tabs

Version: 1 Type: Bass Tab 0 ratings
1 star 2 stars 3 stars 4 stars 5 stars
comments

War Ensemble Bass Tab

   
**********************************************************************
This tab file was downloaded from THE ABYSS - the complete Slayer site                      http://www.slaytanic.com/
**********************************************************************

                      War Ensemble - Slayer
                      =====================

Tune down 1/2 step (Eb,Ab,Db,Gb)

 220 bpm

|-----------------|-----------------|-----------------|-----------------|
|-----------------|-----------------|-----------------|-----------------|
|-----------------|-----------------|-----------------|-----------------|
|-3---------------|---------6---5---|-3---------------|-----------------|
  1   2   3   4   etc.

|-----------------|-----------------|-----------------|-----------------||
|-----------------|-----------------|-----------------|-----------------||
|-----------------|-----------------|-----------------|-----------------||
|-----------------|---------6---5---|-----------------|-----------------||

|-----------------|-----------------|-----------------|-----------------|
|-----------------|-----------------|-----------------|-----------------|
|--pp----pp----pp-|----pp-----------|--pp----pp----p--|-----2-1---------|
|-3100003100003100|-003100006---5---|-310000310000310-|-0-3-----0-3-2-1-|
  1   2   3   4   etc.

|-----------------|-----------------|-----------------|-----------------||
|-----------------|-----------------|-----------------|-----------------||
|--pp----pp----pp-|----pp-----------|--pp----pp----p--|-----2-1---------||
|-3100003100003100|-003100006---5---|-310000310000310-|-0-3-----0-3-2-1-||

|-----------------|-----------------|-----------------|-----------------|
|-----------------|-----------------|-----------------|-----------------|
|-----------------|-----------------|-------3-2-----4-|-3-----7-6---6---|
|-0---0-3-2---0-4-|-3---0-7-6---6---|-0---0-------0---|-----0-----------|

|-----------------|-----------------|-----------------|-----------------||
|-----------------|-----------------|-----------------|-----------------||
|-----------------|-----------------|-------4-3-----5-|-4-----7-6---6---||
|-0---0-3-2---0-4-|-3---0-7-6---6---|-0---0-------0---|-----0-----------||

 verse 1
|-----------------|-----------------|-----------------|-----------------|
|-----------------|-----------------|-----------------|-----------------|
|-----------------|-----------------|-----------------|-----------------|
|-3333333333333333|-3333333333333333|-3333333333333333|-3333333333333333|

|-----------------|-----------------|-----------------|-----------------|
|-----------------|-----------------|-----------------|-----------------|
|-----------------|-----------------|-----------------|-----------------|
|-3333333333333333|-3333333333333333|-3333333333333333|-3333333333333333|

|-----------------|-----------------|-----------------|-----------------|
|-----------------|-----------------|-----------------|-----------------|
|-----------------|-----------------|-----------------|-----------------|
|-3333333333333333|-3333333333333333|-3333333333333333|-3333333333333333|

|-----------------|-----------------|-----------------|-----------------||
|-----------------|-----------------|-----------------|-----------------||
|-----------------|-----------------|-----------------|-----------------||
|-3333333333333333|-3333333333333333|-3333333333333333|-3333333333333333||

|-----------------|-----------------|-----------------|-----------------|
|-----------------|-----------------|-----------------|-----------------|
|-----------------|-----------------|-----------------|-----------------|
|-3---------------|---------6---5---|-----------------|-----------------|

|-----------------|-----------------|-----------------|-----------------|
|-----------------|-----------------|-----------------|-----------------|
|-----------------|-----------------|-----------------|-----------------|
|-----------------|---------6---5---|-0-------0-------|-0-------0-------|

                                      verse 2
|-----------------|-----------------||-----------------|-----------------|
|-----------------|-----------------||-----------------|-----------------|
|-----------------|-----------------||-----------------|-----------------|
|-0-------0-------|-0---------------||-3333333333333333|-3333333333333333|

|-----------------|-----------------|-----------------|-----------------|
|-----------------|-----------------|-----------------|-----------------|
|-----------------|-----------------|-----------------|-----------------|
|-3333333333333333|-3333333333333333|-3333333333333333|-3333333333333333|

|-----------------|-----------------|-----------------|-----------------|
|-----------------|-----------------|-----------------|-----------------|
|-----------------|-----------------|-----------------|-----------------|
|-3333333333333333|-3333333333333333|-3333333333333333|-3333333333333333|

|-----------------|-----------------|-----------------|-----------------|
|-----------------|-----------------|-----------------|-----------------|
|-----------------|-----------------|-----------------|-----------------|
|-3333333333333333|-3333333333333333|-3333333333333333|-3333333333333333|

                                      chorus
|-----------------|-----------------||-----------------|-----------------|
|-----------------|-----------------||-----------------|-----------------|
|-----------------|-----------------||-----------------|-----------------|
|-3333333333333333|-3333333333333333||-0---0-3-2---0-4-|-3---0-7-6---6---|

|-----------------|-----------------|-----------------|-----------------|
|-----------------|-----------------|-----------------|-----------------|
|-----------------|-----------------|-----------------|-----------------|
|-0-0-0-0-0-0-0-0-|-0-0-0-0-0-0-0-0-|-0---0-3-2---0-4-|-3---0-7-6---6---|

                                      guitar solo I
|-----------------|-----------------||-----------------|-----------------|
|-----------------|-----------------||-----------------|-----------------|
|-----------------|-----------------||-----------------|-----------------|
|-0-0-0-0-0-0-0-0-|-0-0-0-0-0-0-0-0-||-2222222222222-5-|-3333333333332-0-|

|-----------------|-----------------|-----------------|-----------------|
|-----------------|-----------------|-----------------|-----------------|
|-----------------|-----------------|-----------------|-----------------|
|-2222222222222-5-|-3333333311111111|-2222222222222-5-|-3333333333332-0-|

|-----------------|-----------------|-----------------|-----------------|
|-----------------|-----------------|-----------------|-----------------|
|-----------------|-----------------|-----------------|-----------------|
|-2222222222222-5-|-3333333311111111|-2222222222222-5-|-3333333333332-0-|

|-----------------|-----------------|-----------------|-----------------|
|-----------------|-----------------|-----------------|-----------------|
|-----------------|-----------------|-----------------|-----------------|
|-2222222222222-5-|-3333333311111111|-2222222222222-5-|-3333333333332-0-|

                                      chorus
|-----------------|-----------------||-----------------|-----------------|
|-----------------|-----------------||-----------------|-----------------|
|-----------------|-----------------||-----------------|-----------------|
|-2222222222222-5-|-3-------1-------||-0---0-3-2---0-4-|-3---0-7-6---6---|

|-----------------|-----------------|-----------------|-----------------|
|-----------------|-----------------|-----------------|-----------------|
|-----------------|-----------------|-----------------|-----------------|
|-0-0-0-0-0-0-0-0-|-0-0-0-0-0-0-0-0-|-0---0-3-2---0-4-|-3---0-7-6---6---|

|-----------------|-----------------||-----------------|-----------------|
|-----------------|-----------------||-----------------|-----------------|
|-----------------|-----------------||-----------------|-----------------|
|-0-0-0-0-0-0-0-0-|-0-0-0-0-0-0-0-0-||-0---0-3-2---0-4-|-3---0-7-6---6---|

|-----------------|-----------------|-----------------|-----------------|
|-----------------|-----------------|-----------------|-----------------|
|-------3-2-----4-|-3-----7-6---6---|-----------------|-----------------|
|-0---0-------0---|-----0-----------|-0---0-3-2---0-4-|-3---0-7-6---6---|

|-----------------|-----------------|-----------------|-----------------||
|-----------------|-----------------|-----------------|-----------------||
|-------4-3-----5-|-4-----7-6---6---|-----------------|-----------------||
|-0---0-------0---|-----0-----------|-0---------------|-----------------||

 196 bpm
|-----------------|-----------------|-----------------|-----------------|
|-----------------|-----------------|-----------------|-----------------|
|---8-7-----------|-----------------|---8-7-----------|-----------------|
|-0-----0-6-5-0-8-|-7-0-7-6-3-5-6---|-0-----0-6-5-0-8-|-7-0-7-6-3-6-4---|
[ Tab from: http://www.guitartabs.cc/tabs/s/slayer/war_ensemble_btab.html ]
|-----------------|-----------------|-----------------|-----------------|
|-----------------|-----------------|-----------------|-----------------|
|---8-7-----------|-----------------|---8-7-----------|-----------------|
|-0-----0-6-5-0-8-|-7-0-7-6-6-4-3---|-0-----0-6-5-0-8-|-7-0-7-6-1---1---|

|-----------------|-----------------|-----------------|-----------------|
|-----------------|-----------------|-----------------|-----------------|
|---8-7-----------|-----------------|---8-7-----------|-----------------|
|-0-----0-6-5-0-8-|-7-0-7-6-3-5-6---|-0-----0-6-5-0-8-|-7-0-7-6-3-6-4---|

|-----------------|-----------------|-----------------|-----------------||
|-----------------|-----------------|-----------------|-----------------||
|---8-7-----------|-----------------|---8-7-----------|-----------------||
|-0-----0-6-5-0-8-|-7-0-7-6-6-4-3---|-0-----0-6-5-0-8-|-7-0-7-6-1---1---||

  verse 3
|-----------------|-----------------|-----------------|-----------------|
|-----------------|-----------------|-----------------|-----------------|
|-----------------|-----------------|-----------------|-----------------|
|-0-0-0-0-0-0-0-0-|-0-0-0-0-3---5---|-6-------0-0-0-0-|-0-0-0-0-3---6---|

|-----------------|-----------------|-----------------|-----------------|
|-----------------|-----------------|-----------------|-----------------|
|-----------------|-----------------|-----------------|-----------------|
|-4-------0-0-0-0-|-0-0-0-0-6---4---|-3-------0-0-0-0-|-0-0-0-0-1---1---|

|-----------------|-----------------|-----------------|-----------------|
|-----------------|-----------------|-----------------|-----------------|
|-----------------|-----------------|-----------------|-----------------|
|-1-------0-0-0-0-|-0-0-0-0-3---5---|-6-------0-0-0-0-|-0-0-0-0-3---6---|

                                                                        2/4
|-----------------|-----------------|-----------------|-----------------|---------||
|-----------------|-----------------|-----------------|-----------------|---------||
|-----------------|-----------------|-----------------|-----------------|---------||
|-4-------0-0-0-0-|-0-0-0-0-6---4---|-3-------0-0-0-0-|-0-0-0-0-1---1---|---------||

4/4
|-----------------|-----------------|-----------------|-----------------|
|-----------------|-----------------|-----------------|-----------------|
|---8-7-----------|-----------------|---8-7-----------|-----------------|
|-0-----0-6-5-0-8-|-7-0-7-6-3-5-6---|-0-----0-6-5-0-8-|-7-0-7-6-3-6-4---|

|-----------------|-----------------|-----------------|-----------------||
|-----------------|-----------------|-----------------|-----------------||
|---8-7-----------|-----------------|---8-7-----------|-----------------||
|-0-----0-6-5-0-8-|-7-0-7-6-6-4-3---|-0-----0-6-5-0-8-|-7-0-7-6-1---1---||

 verse 4
|-----------------|-----------------|-----------------|-----------------|
|-----------------|-----------------|-----------------|-----------------|
|-----------------|-----------------|-----------------|-----------------|
|-0-0-0-0-0-0-0-0-|-0-0-0-0-3---5---|-6-------0-0-0-0-|-0-0-0-0-3---6---|

|-----------------|-----------------|-----------------|-----------------|
|-----------------|-----------------|-----------------|-----------------|
|-----------------|-----------------|-----------------|-----------------|
|-4-------0-0-0-0-|-0-0-0-0-6---4---|-3-------0-0-0-0-|-0-0-0-0-1---1---|

|-----------------|-----------------|-----------------|-----------------|
|-----------------|-----------------|-----------------|-----------------|
|-----------------|-----------------|-----------------|-----------------|
|-1-------0-0-0-0-|-0-0-0-0-3---5---|-6-------0-0-0-0-|-0-0-0-0-3---6---|

|-----------------|-----------------|-----------------|-----------------||
|-----------------|-----------------|-----------------|-----------------||
|-----------------|-----------------|-----------------|-----------------||
|-4-------0-0-0-0-|-0-0-0-0-6---4---|-3-------0-0-0-0-|-0-0-0-0-1---1---||

 tempo I
|-----------------|-----------------|-----------------|-----------------|
|-----------------|-----------------|-----------------|-----------------|
|-----------------|-----------------|-----------------|-----------------|
|-0---0---0---0---|-0---0---0---0---|-0---0---0---0---|-0---0---0---0---|

|-----------------|-----------------|-----------------|-----------------||
|-----------------|-----------------|-----------------|-----------------||
|-----------------|-----------------|-----------------|-----------------||
|-0---0---0---0---|-0---0---0---0---|-0-0-0-0-0-0-0-0-|-0-0-0-0-0-0-0-0-||

 guitar solo II
|-----------------|-----------------|-----------------|-----------------|
|-----------------|-----------------|-----------------|-----------------|
|-----------------|-----------------|-----------------|-----------------|
|-0-0-0-0-0-0-0-0-|-0-0-0-0-0-0-0-0-|-0-0-0-0-0-0-0-0-|-0-0-0-0-0-0-0-0-|

|-----------------|-----------------|-----------------|-----------------||
|-----------------|-----------------|-----------------|-----------------||
|-----------------|-----------------|-----------------|-----------------||
|-0-0-0-0-0-0-0-0-|-0-0-0-0-0-0-0-0-|-0-0-0-0-0-0-0-0-|-0-0-0-0-0-0-0-0-||

|-----------------|-----------------|-----------------|-----------------|
|-----------------|-----------------|-----------------|-----------------|
|-----------------|-----------------|-----------------|-----------------|
|-0---0-3-2---0-4-|-3---0-7-6---6---|-0-0-0-0-0-0-0-0-|-0-0-0-0-0-0-0-0-|

|-----------------|-----------------|-----------------|-----------------||
|-----------------|-----------------|-----------------|-----------------||
|-----------------|-----------------|-----------------|-----------------||
|-0---0-3-2---0-4-|-3---0-7-6---6---|-0-0-0-0-0-0-0-0-|-0-0-0-0-0-0-0-0-||

|-----------------|-----------------|-----------------|-----------------|
|-----------------|-----------------|-----------------|-----------------|
|-----------------|-----------------|-------3-2-----4-|-3-----7-6---6---|
|-0---0-3-2---0-4-|-3---0-7-6---6---|-0---0-------0---|-----0-----------|

|-----------------|-----------------|-----------------|-----------------||
|-----------------|-----------------|-----------------|-----------------||
|-----------------|-----------------|-------4-3-----5-|-4-----7-6---6---||
|-0---0-3-2---0-4-|-3---0-7-6---6---|-0---0-------0---|-----0-----------||

 verse 5
|-----------------|-----------------|-----------------|-----------------|
|-----------------|-----------------|-----------------|-----------------|
|-----------------|-----------------|-----------------|-----------------|
|-0000000000000000|-0000000000000000|-0000000000000000|-0000000000000000|

|-----------------|-----------------|-----------------|-----------------|
|-----------------|-----------------|-----------------|-----------------|
|-----------------|-----------------|-----------------|-----------------|
|-0000000000000000|-0000000000000000|-0000000000000000|-0000000000000000|

|-----------------|-----------------|-----------------|-----------------|
|-----------------|-----------------|-----------------|-----------------|
|-----------------|-----------------|-----------------|-----------------|
|-0000000000000000|-0000000000000000|-0000000000000000|-0000000000000000|

|-----------------|-----------------|-----------------|-----------------||
|-----------------|-----------------|-----------------|-----------------||
|-----------------|-----------------|-----------------|-----------------||
|-0000000000000000|-0000000000000000|-0000000000000000|-1---------------||

 chorus
|-----------------|-----------------|-----------------|-----------------|
|-----------------|-----------------|-----------------|-----------------|
|-----------------|-----------------|-----------------|-----------------|
|-0---0-3-2---0-4-|-3---0-7-6---6---|-0-0-0-0-0-0-0-0-|-0-0-0-0-0-0-0-0-|

|-----------------|-----------------|-----------------|-----------------||
|-----------------|-----------------|-----------------|-----------------||
|-----------------|-----------------|-----------------|-----------------||
|-0---0-3-2---0-4-|-3---0-7-6---6---|-0-0-0-0-0-0-0-0-|-0-0-0-0-0-0-0-0-||

|-----------------|-----------------|-----------------|-----------------|
|-----------------|-----------------|-----------------|-----------------|
|-----------------|-----------------|-------3-2-----4-|-3-----7-6---6---|
|-0---0-3-2---0-4-|-3---0-7-6---6---|-0---0-------0---|-----0-----------|

|-----------------|-----------------|-----------------|-----------------||
|-----------------|-----------------|-----------------|-----------------||
|-----------------|-----------------|-------4-3-----5-|-4-----7-6---6---||
|-0---0-3-2---0-4-|-3---0-7-6---6---|-0---0-------0---|-----0-----------||

|-----------------|-----------------|-----------------|-----------------|
|-----------------|-----------------|-----------------|-----------------|
|-----------------|-----------------|-----------------|-----------------|
|-3---------------|---------6---5---|-----------------|---------6---5---|

|-----------------|-----------------|-----------------|-----------------||
|-----------------|-----------------|-----------------|-----------------||
|-----------------|-----------------|-----------------|-----------------||
|-0-------0-------|-0---------------|-1-0---0---0---0-|---0---0---------||


Comments