Slayer - Violent Pacification Chords & Tabs

 

Violent Pacification Chords & Tabs

Slayer Chords & Tabs

Version: 2 Type: Bass Tab 0 ratings
1 star 2 stars 3 stars 4 stars 5 stars
comments

Violent Pacification Bass Tab

   
**********************************************************************
This tab file was downloaded from THE ABYSS - the complete Slayer site
                      http://www.slaytanic.com/
**********************************************************************

SLAYER
Undisputed Attitude
TABBED BY: EDUARDO FERREIRA PITSCH

                                    Violent Pacification

Tune Down 1/2 Step
[ Tab from: http://www.guitartabs.cc/tabs/s/slayer/violent_pacification_btab_ver_2.html ]
Ab:---3-3-3-5-6-3-3-3---------
Eb:-----------------------5-6----

   "V i o l e n t P a c i f i c a t i o n"   
Eb:-0-0-01-1-1-1-5-5-5-5-5-6-6-6-6-6-     

Eb:-8-9-10-11-12-13-14-15
      
"V i o l e n t    P a c i f i c a t i o n"   
Eb:-0-0-0-1-1-1-1-5-5-5-5-5-6-6-6-6-6-     

Ab:10-9-8-7-6-5-4-3-2

Ab:-2-2-2-2-2-7-7-7-2-2-2-2-2----0-1-2-2-2-2-2
Eb:--------------------------3-4-------------

Ab:-3-3-3-3-5-5-5-5-4-4-------------------
Eb:---------------------------------------
Comments