Slayer - Verbal Abuse Chords & Tabs

 

Verbal Abuse Chords & Tabs

Slayer Chords & Tabs

Version: 2 Type: Bass Tab 0 ratings
1 star 2 stars 3 stars 4 stars 5 stars
comments

Verbal Abuse Bass Tab

**********************************************************************
This tab file was downloaded from THE ABYSS - the complete Slayer site
                      http://www.slaytanic.com/
**********************************************************************

VERBAL ABUSE/LEECHES
 SLAYER.
 UNDISPUTED ATTITUDE.
 TABBED BY EDUARDO FERREIRA PITSCH
Riff 1:
A-----5--3--2-----------------------------------|
E--5-----------5-5-5-5-5-5-5-3-5-5-5-5-5-5-5-5--|

Riff 2:
A--5----3-------------------------------------|
E------------5-5-5-5-5-5-5-3-5-5-5-5-5-5-5-5--|

Riff 3:
E--5----3----5-5-5-5-5-5-5-3-5-5-5-5-5-5-5-5--|
[ Tab from: http://www.guitartabs.cc/tabs/s/slayer/verbal_abuse_btab_ver_2.html ]
Bridge:
A--5-5-5-5-5--|
E-------------|

Riff 4:
E--5-5-5-5-5-5-5-3-5-5-5-5-5-5-5-3-5-5-5-5-5-5-5-5--|

A--5-5-5-5-3-3-3-3-3-3-3-3--|----------5-5-5-5-3-3-3-3-3-3-3-3--|
E---------------------------|--5-5-5-5--------------------------|

A----------5-5-5-5-3-3-3-3-3-3-3-3--|----------5-5-5-5-3-3-3-3-3-3-3-3--|
E--5-5-5-5--------------------------|--5-5-5-5--------------------------|

Riff 5:
A--2--2-2-2-2-2-2-0-0-0-------------|
E-----------------------3----3-3----|

Riff 6:
A--2-2-2-2-2-2-2-2-7-7-7-7-5----3----|
E------------------------------------|

Riff 7:
A--5-5-5-5-5-5-5-5-7-7-7-7-7-7-7-7--|--0-0-0-0-0-0-0-0-2--2--2--2--|
E-----------------------------------|------------------------------|
Comments