Slayer - Unguarded Instinct Chords & Tabs

 

Unguarded Instinct Chords & Tabs

Slayer Chords & Tabs

Version: 1 Type: Tab 0 ratings
1 star 2 stars 3 stars 4 stars 5 stars
comments

Unguarded Instinct Tab

Band- Slayer
Song- Unguarded Instinct

eb:|--------------------------------------------------------------|
Bb:|--------------------------------------------------------------|
Gb:|--------------------------------------------------------------|
Db:|--------------------------------------------------------------|
Ab:|-2--3--2-------------2-------------2-------------2------------|
Eb:|-0--1--0-0-0-0-0-0-0-0-0-0-0-0-0-0-0-0-0-0-0-0-0-0--etc...----|


    repeat 2 times          repeat 2 times
eb:-------------------0-|---------------------------------*------------|
Bb:-------------------0-|---------------------------------*------------|
Gb:---------------------|---------------------------------*------------|
Db:-2--------9-8--10----|-----------------3-5--5h6p5-3h5--*------------|
Ab:-2-------------------|-2-------------------------------*-2--2-2-2-2-|
Eb:-0-------------------|-0-0-0-0-0-1-0-1-----------------*-0--0-0-0-0-|

verse
eb:-------------------------------------------------------------------|
Bb:-------------------------------------------------------------------|
Gb:-------------------------------------------------------------------|
Db:-----------2-0-2----------0h2p0----------2-0-2-------3-5-5h6p5-3h5-|
Ab:-2-----------------------------------------------------------------|
Eb:-0-0-0-0-0-------0-0-0-0--------0-0-0-0---------0-0-0--------------|

 repeat 2 times
eb:----------------|
Bb:----------------|
Gb:------7--6------|
Db:-5----7--6--6---|
Ab:-5----5--4--6---|
Eb:-3----------4---|

    repeat 2 times
eb:|---------------------------------*------------|
Bb:|---------------------------------*------------|
Gb:|---------------------------------*------------|
Db:|-----------------3-5--5h6p5-3h5--*------------|
Ab:|-2-------------------------------*-2--2-2-2-2-|
Eb:|-0-0-0-0-0-1-0-1-----------------*-0--0-0-0-0-|

   play 4 times
eb:----------------------------------------------------------------------|
Bb:----------------------------------------------------------------------|
Gb:----------------------------------------------------------------------|
Db:--------------------------------------------------------3h5-5h6p5-3h5-|
Ab:-2---------------2--------------2-------------------------------------|
Eb:-0--0-0-0-1-0-1--0--0-0-0-1p0h1-0--0-0-0-1p0h1-0-0-0-0----------------|


eb:----------------|-----------------------------------------|
Bb:----------------|-----------------------------------------|
Gb:-------7--6-----|-----------------------------------------|
Db:-5-----7--6---6-|-----------------------------------------|
Ab:-5-----5--4---6-|-----------------------------------------|
Eb:-3------------4-|1-1-1-1-1-1-1-1-1-1-1-1-1-1-1-1-1-1-etc..|

solo 1
eb:-----------------------------------------------------------------------|
Bb:---------------------3b-------------6-7-9-7------------------6-7-9-7---|
Gb:--5b-N.H.-~~~~----5b-5b--5b-----------------9-6-7-9-7-6-7-6----------9-|
Db:-----------------------------------------------------------------------|
Ab:-------------------------------x\--------------------------------------|
Eb:-------------------------------x\--------------------------------------|
[ Tab from: http://www.guitartabs.cc/tabs/s/slayer/unguarded_instinct_tab.html ]
eb:-----------------------------------------------------------------------|
Bb:6-7-9-7-6--------------------------------------------------------------|
Gb:----------9-6-7-9-7-6-7-6----------------------------------------------|
Db:---------------------------9b-9b~~~---7-9-7-------------------10-11-10-|
Ab:---------------------------------------------8-7-8----------9----------|
Eb:----------------------------------------------------9-8-9-8------------|


                         3 times
eb:---------------------*---------*-13-14-13-14-13-14-16-14-13----13-14-13-14-16-14-13-|
Bb:----------14-14-13~~-*-13-14-16*----------------------------16----------------------|
Gb:11-10-11-------------*---------*----------------------------------------------------|
Db:---------------------*---------*----------------------------------------------------|
Ab:---------------------*---------*----------------------------------------------------|
Eb:---------------------*---------*----------------------------------------------------|


   2 times
eb:16p13----|------------------------------|
Bb:------14-|-16-13-14-16-13-14------------|
Gb:---------|--------------------15b\------|
Db:---------|------------------------------|
Ab:---------|------------------------------|
Eb:---------|------------------------------|


solo 2
eb:-------------------------------------------------------------------------|
Bb:17-18-20-17-18-20-17-18-20-etc..-----17-18-20----17-18-20----17-18-20----|
Gb:----------------------------------19----------19----------19----------etc|
Db:-------------------------------------------------------------------------|
Ab:-------------------------------------------------------------------------|
Eb:-------------------------------------------------------------------------|

eb:---------------------------------------------------------------------|
Bb:-161616-17-161616-19-161616-17-161616-19-----------------------------|
Gb:------------------------------------------17b-N.H.--17bN.H.--17bN.H.-|
Db:---------------------------------------------------------------------|
Ab:---------------------------------------------------------------------|
Eb:---------------------------------------------------------------------|

                                                                  2
times
eb:----------------------------------------------------4-3---16b-*-16-17-19-|
Bb:1-2-4-4~~~-------1-2-4-3-3-3-------1-2-4-3-4-----1--------19b-*----------|
Gb:-----------3-4-6-------------3-4-6------------4---------------*----------|
Db:--------------------------------------------------------------*----------|
Ab:--------------------------------------------------------------*----------|
Eb:--------------------------------------------------------------*----------|


eb:20202019191920202022-22-22-22-22-24-24-24-22-22-22--18b~~~--18b\-------|
Bb:----------------------------------------------------21b~~~--21b\-------|
Gb:-----------------------------------------------------------------------|
Db:-----------------------------------------------------------------------|
Ab:-----------------------------------------------------------------------|
Eb:-----------------------------------------------------------------------|


gt1
eb:|--------------------------------------------------------------|
Bb:|--------------------------------------------------------------|
Gb:|--------------------------------------------------------------|
Db:|--------------------------------------------------------------|
Ab:|-2--3--2-------------2-------------2-------------2------------|
Eb:|-0--1--0-0-0-0-0-0-0-0-0-0-0-0-0-0-0-0-0-0-0-0-0-0--etc...----|

gt2    2 times
eb:----------------------*---------------------------*-----------?
Bb:----------------------*---------------------------*-----------?
Gb:----------------------*-----------------10-9------*-----------?
Db:-----10-9---------9-8-*-------10-9----------------*-----------?
Ab:-8-7---------8-7------*--8-7--------8-7-------8-7-*-8-7-------?
Eb:----------------------*---------------------------*-----------?
Comments