Slayer - Trevor Clements Chords & Tabs

 

Trevor Clements Chords & Tabs

Slayer Chords & Tabs

Version: 1 Type: Tab 0 ratings
1 star 2 stars 3 stars 4 stars 5 stars
comments

Trevor Clements Tab

Band- Slayer
Song- Trevor Clements
[ Tab from: http://www.guitartabs.cc/tabs/s/slayer/trevor_clements_tab.html ]
 
Intro  
e||-------------------------------------------------------|  
B||-------------------------------------------------------|  
G||.-4~~-3--------------4-4--3h4p3----3-------------------|  
D||.-------5-4-2~~~-4-5-------------5---5-2~~~------------|  
A||-------------------------------------------------------|  
E||-------------------------------------------------------|  
 
e|-------------------------------------------------------||2x  
B|-------------------------------------------------------||  
G|---2----------------------4-4-4-3----------------------.||  
D|-4---5-4--2-1-2-4-5-2~~~----------5-2-4~~~~~~----------.||  
A|-------------------------------------------------------||  
E|-------------------------------------------------------||  
 
   Main Riff  
e|--||---------------------------------------------------|  
B|--||---------------------------------------------------|  
G|--||.--------------------------------------------------|  
D|-5||.-5-5-5-5-5-5--5-5-5-5-5-6--6-6-6-6-6-6--6-6-6--6-6|  
A|-3||--3-3-3-3-3-3--3-3-3-3-3-3--3-3-3-3-3-3--3-3-3--3-3|  
E|--||---------------------------------------------------|  
 
e|-------------------------------------------------------||2x  
B|-------------------------------------------------------||  
G|-------------------------------------------------------.||  
D|-5--5-5-5-5-5-5--5-5-5-5-5-5--5-5---6---5--------------.||  
A|-3--3-3-3-3-3-3--3-3-3-3-3-3--3-3---3---3--------------||  
E|-------------------------------------------------------||  
 
   Main Riff part 2 -- Verse Riff  
e||-------------------------------------------------------|  
B||-------------------------------------------------------|  
G||.------------------------------------------------------|  
D||.-5-5-5-5-5-5--5-5-5-5-5-6--6-6-6-6-6-6--6-6-6--6-6----|  
A||--3-3-3-3-3-3--3-3-3-3-3-3--3-3-3-3-3-3--3-3-3--3-3----|  
E||-------------------------------------------------------|  
 
e|--------------------------------------------------------|  
B|--------------------------------------------------------|  
G|--------------------------------------------------------|  
D|-5--5-5-5-5-5-5--5-5-5-5-5-5--5-5-----------------------|  
A|-3--3-3-3-3-3-3--3-3-3-3-3-3--3-3--6-5------------------|  
E|-----------------------------------4-3------------------|  
 
e|-------------------------------------------------------||2x  
B|-------------------------------------------------------||  
G|-------------------------------------------------------.||  
D|-5-5-5-5-5-5-5-5-5-5-5-6--6-6-6-6-6-6-6-6-6-6-6-5------.||  
A|-3-3-3-3-3-3-3-3-3-3-3-3--3-3-3-3-3-3-3-3-3-3-3-3-6--5-||  
E|--------------------------------------------------4--3-||  
 
   Chorus  
e|--------------------------------------------------------|  
B|--------------------------------------------------------|  
G|-2-0-2-------------5-4-5--------------9-7-10--9---------|  
D|-2-0-2-------------7-5-7-------------10-9-12-10---------|  
A|-0---0--0-0-0-0-------------0-0-0-0-----------------5---|  
E|-------------------------------------------------0--3---|  
 
e|---------------------------------------------------3----|  
B|---------------------------------------------------3----|  
G|-2-0-2-------------5-4-5-------------9-7-10--9-----0----|  
D|-2-0-2-------------7-5-7------------10-9-12-10-----0----|  
A|-0---0--0-0-0-0------------0-0-0-0-----------------2----|  
E|------------------------------------------------0--3----|
Comments