Slayer - Tormentor Chords & Tabs

 

Tormentor Chords & Tabs

Slayer Chords & Tabs

Version: 2 Type: Bass Tab 0 ratings
1 star 2 stars 3 stars 4 stars 5 stars
comments

Tormentor Bass Tab

this is                        T O R M E N T O R
by the awsome band                S L A Y E R
from their best album       S H O W  N O  M E R C Y

Intro                           1,2,3   4
----------------------------|----------|------|
----------------------------|----------|------|
-7------2-------3--7------2-|----------|------|
-0--0-0---3---3----0--0-0---|3x----7---|-3----|

Pre Chorus
-----------------------------------------------------------|
-2-----2-----2-----2---------2-----2-----2-----2-----------|
---3-0---3-0---3-0---3-0-------3-0---3-0---3-0---3-0-------|
-------------------------3-5-------------------------3-2---|

Verse
--------------------------------|
--------------------------------|
-------5h7-----3h5-----2--------|
-0-000-----000-----000---3-232--|

Pre Chorus
-----------------------------------------------------------|
-2-----2-----2-----2---------2-----2-----2-----2-----------|
---3-0---3-0---3-0---3-0-------3-0---3-0---3-0---3-0-------|
-------------------------3-5-------------------------3-2---|
[ Tab from: http://www.guitartabs.cc/tabs/s/slayer/tormentor_btab_ver_2.html ]
Chorus
-------------------------------------------------------------|
-------------------------------------------------------------|
---------2-22222-3-33333-2-22222---------2-22222-3-33333-5x--|
-0-00000-------------------------0-00000---------------------|

--------------------------------------------------9---|
--------------------------------------------------9---|
---------2-22222-3-33333-2-22222------------------7---|
-0-00000-------------------------0-00000--3-33333-0---|

First Solo Riffs:
* * * * * * * * * * * * * * * * * * * * * * * * * * * * * * * * * *
* First play the verse riff then the chorus riff with one change; *
* the last E is stopped (x) and is repeated like that three times *
* * * * * * * * * * * * * * * * * * * * * * * * * * * * * * * * * *


Second Solo Riffs:
Play verse then a heavy E (0799). And last of all: two strikes on high E (x7xx).

/metal_up_your_ass@2die4.com

                    __
  / |     /\   \_/ |    |\
  \ |    /__\   /  |__  |/
  / |__ /    \ /   |__  |\
                        | \
                        |
                     6__|__6
                        |
                        6
Comments