Slayer - Threshold Chords & Tabs

 

Threshold Chords & Tabs

Slayer Chords & Tabs

Version: 1 Type: Tab 0 ratings
1 star 2 stars 3 stars 4 stars 5 stars
comments

Threshold Tab

 SLAYER- threshold 
 tabbed by matt lynch 

 tune to Db  1 1/2 steps down 
 palm mute  where needed 

 this song is simple, probably the easiest slayer song ever 

 intro 
 e----------------------------------- 
 b----------------------------------- 
 g----------------------------------- 
 d----------------------------------- 
 a----------------------------------- 
 e-2-1-0-1-0--2-1-0--2-1-0-1-0--2-1-0   play twice 

 interlude 
 d-------------------------------------------------- 
 a-------------------------------------------------- 
 e-3-2-0-3-2-0-3-2-0-3-2-0---3-2-0-3-2-0-3-2-0-3-2-0 repeat 

 verse - variation on intro   i think this is right... 
[ Tab from: http://www.guitartabs.cc/tabs/s/slayer/threshold_tab.html ]
 d----------------------------------------- 
 a----------------------------------------- 
 e--2-1-0-1-0--2-1-0--2-1-0-1-0-1-0--2-1-0-  repeat 

 2nd verse 

 d---------------------------------- 
 a---------------------------------- 
 e-1-0-0--0-1-0-0--0-1-0-0--0-1-0-0- 

 fill 
        harmonics 
 e-----(5)--------- 
 b-----(5)--------- 
 g-----(5)--------- 
 d-----wammy bar dive then pull up.. listen to cd 
 a----------------- 
 e----------------- 

 d--------------------------- 
 a--------------------------- 
 e--1--0-0-0-0-0-1--0--1-0-1- 


 those are all the riffs in the song, if you cant figure out where they go and how many times, you need a
 hearing aid
Comments