Slayer - The Antichrist Chords & Tabs

 

The Antichrist Chords & Tabs

Slayer Chords & Tabs

Version: 2 Type: Bass Tab 0 ratings
1 star 2 stars 3 stars 4 stars 5 stars
comments

The Antichrist Bass Tab

**********************************************************************
This tab file was downloaded from THE ABYSS - the complete Slayer site                      http://www.slaytanic.com/
**********************************************************************

                        The Antichrist - Slayer
                        =======================

tune down 1/2 step

240 bpm
                                        4x
||-------------------|-------------------|||-------------------|
||o------------------|------------------o|||o-----4-2----------|
||o------------------|-------------2----o|||o---------4-3------|
||-------------------|-------------------|||--0-------------2--|
    1   2   3   4      1   2   3   4 etc.

                   3x
|-------------------||------------------|------------------||
|-4-2--------------o||-----4-2----------|-4-2--------------||
|-----4-3-----2----o||---------4-3------|-----4-3-2--------||
|-----------2-------||-2-------------2--|-----------4-3-2--||

||-------------------|------------------|------------------|
||o------------------|------------------|------------------|
||o-----7/8---7/8----|-------------5----|-----7/8---7/8----|
||--0-------0-----0--|-7/8-0-7/8-0------|-0-------0-----0--|

|1.                   |2.
|--------------------||------------------||-------------------|
|-------------------o||-7-5--------------||o------------------|
|-------------10----o||-----7-6-5--------||o-----7/8---7/8----|
|-7/8-0-7/8-0--------||-----------7-6-5--||--0-------0-----0--|

                                      |1.,3.,4.
|------------------|------------------|--------------------||
|------------------|------------------|-------------------o||
|-------------5----|-----7/8---7/8----|-------------10----o||
|-7/8-0-7/8-0------|-0-------0-----0--|-7/8-0-7/8-0--------||

|2.                      chorus
|----------------------||------------------|------------------|
|---------------------o||------------------|------------------|
|-10-----10-----10----o||-5---5-------5----|------------------|
|----------------------||------------------|-8-------6---6----|

|------------------|------------------|------------------|------------------|
|------------------|------------------|------------------|------------------|
|-5---5-------5----|---------8--------|-5---5-------5----|------------------|
|------------------|-6----------------|------------------|-8-------6---6----|

|------------------|------------------||-------------------|
|------------------|------------------||o-----4-2----------|
|-5---5-------5----|---------8--------||o---------4-3------|
|------------------|-6----------------||--0-------------2--|

                   3x
|-------------------||------------------|------------------||
|-4-2--------------o||-----4-2----------|-4-2--------------||
|-----4-3-2--------o||---------4-3------|-----4-3-2--------||
|-----------4-3-2---||-2-------------2--|-----------4-3-2--||

  verse 2
||-------------------|------------------|------------------|
||o------------------|------------------|------------------|
||o-----7/8---7/8----|-------------5----|-----7/8---7/8----|
||--0-------0-----0--|-7/8-0-7/8-0------|-0-------0-----0--|
[ Tab from: http://www.guitartabs.cc/tabs/s/slayer/the_antichrist_btab_ver_2.html ]
|1.,3.,4.             |2.                       solo
|--------------------||----------------------|||-------------------|
|-------------------o||---------------------o|||o------------------|
|-------------10----o||-10-----10-----10----o|||o------------------|
|-7/8-0-7/8-0--------||----------------------|||--0---0-0-0-0-0-0--|

                                                         4x
|------------------|------------------|-------------------||
|------------------|------------------|------------------o||
|-3-----2----------|------------------|-------5----------o||
|------------------|-0---0-0-0-0-0-0--|-3-----------------||

 120 bpm                                6x 240 bpm
||-------------------|-------------------||------------------|
||o------------------|------------------o||------------------|
||o-7---7-----7-7----|-5---5-----888----o||------------------|
||--------0000----00-|-------666-----00--||-8-8-8-8-8-8-8-8--|

|------------------|------------------|------------------||
|------------------|------------------|------------------||
|------------------|------------------|------------------||
|-8-8-8-8-8-8-8-8--|-7-7-7-7-7-7-7-7--|-7-7-7-7-7-7-7-7--||

||-------------------|------------------|------------------|
||o------------------|------------------|------------------|
||o-----7/8---7/8----|-------------5----|-----7/8---7/8----|
||--0-------0-----0--|-7/8-0-7/8-0------|-0-------0-----0--|

|1.                   |2.                 verse 3
|--------------------||------------------||-------------------|
|-------------------o||-7-5--------------||o------------------|
|-------------10----o||-----7-6-5--------||o-----7/8---7/8----|
|-7/8-0-7/8-0--------||-----------7-6-5--||--0-------0-----0--|

|1.,3.,4.             |2.                      chorus
|--------------------||----------------------||------------------|
|-------------------o||---------------------o||------------------|
|-------------10----o||-10-----10-----10----o||-5---5-------5----|
|-7/8-0-7/8-0--------||----------------------||------------------|

|------------------|------------------|------------------|------------------|
|------------------|------------------|------------------|------------------|
|------------------|-5---5-------5----|---------8--------|-5---5-------5----|
|-8-------6---6----|------------------|-6----------------|------------------|

|------------------|------------------|------------------|
|------------------|------------------|------------------|
|------------------|-5---5-------5----|---------8--------|
|-8-------6---6----|------------------|-6----------------|

                                        3x
||-------------------|-------------------||------------------|
||o-----4-2----------|-4-2--------------o||-----4-2----------|
||o---------4-3------|-----4-3-----2----o||---------4-3------|
||--0-------------2--|-----------2-------||-2-------------2--|

|------------------|------------------|------------------|
|-4-2--------------|------------------|------------------|
|-----4-3-2--------|------------------|------------------|
|-----------4-3-2--|-1----------------|(1)---------------|

|----------------------|----------------------|------------------||
|----------------------|----------------------|------------------||
|-5-5-5-5---7-7-7-7----|-5-5-5-5---3-3-3-3----|-0----------------||
|----------------------|----------------------|------------------||
  { 3 }     { 3 }        { 3 }     { 3 }

Comments