Slayer - Temptation Chords & Tabs

 

Temptation Chords & Tabs

Slayer Chords & Tabs

Version: 1 Type: Tab 0 ratings
1 star 2 stars 3 stars 4 stars 5 stars
comments

Temptation Tab

   
Temptation  (Guitar solo)
>From slayer: Seasons in the abyss

Transcribed by Ruddy Guzman

eb:--------------------------------------------------------------------------------------|
Bb:-/5~---------5h7p5-------5------------------------------------------------------------|
Gb:-------7-----------7--------7----5--5--5----4\---------------18b~~~~\-----------------|
Db:--------------------------------------------------5\----------------------15h17--14~~-|
Ab:--------------------------------------------------------------------------------------|
Eb:--------------------------------------------------------------------------------------|


eb:---------------------------------15-17-19---21b----22b-|
Bb:------------------15-17-15-17-19-----------------------|
Gb:----------14-16-17-------------------------------------|
Db:-14-16-17----------------------------------------------|
Ab:-------------------------------------------------------|
Eb:-------------------------------------------------------|

[ Tab from: http://www.guitartabs.cc/tabs/s/slayer/temptation_tab.html ]
eb:-21-18-19-21-22-----------------------------------------------|
Bb:----------------21-19-18--------------------------------------|
Gb:-------------------------21-19-18-----------------------------|
Db:----------------------------------21-19-18--------------------|
Ab:-------------------------------------------21-19-18-----------|
Eb:----------------------------------------------------21-19-18/-|


eb:-3-times-*-3-times-*-3-times-*-3-times-*-3-times-*-3-times-*
Bb:-------t-*-------t-*-------t-*-------t-*-------t-*-------t-*
Gb:--12--14-*--11--13-*--14--16-*--13--15-*--16--18-*--15--17-*
Db:---------*---------*---------*---------*---------*---------*
Ab:---------*---------*---------*---------*---------*---------*
Eb:---------*---------*---------*---------*---------*---------*


eb:--2-times-------|---2-times------|---2--times-------|
Bb:---14--16-------|----17--19------|-----18--21-------|
Gb:--------t-------|---------t------|----------t-------|
Db:----------------|----------------|------------------|
Ab:----------------|----------------|------------------|
Eb:----------------|----------------|------------------|


eb:--21b-------------------------|
Bb:------------------------------|
Gb:------------------------------|
Db:------------------------------|
Ab:------------------------------|
Eb:------------------------------|


b bend
~ vibrato
h hammer
p pull
t tap
/ slide
Comments