Slayer - Superficial Love Chords & Tabs

 

Superficial Love Chords & Tabs

Slayer Chords & Tabs

Version: 1 Type: Tab 0 ratings
1 star 2 stars 3 stars 4 stars 5 stars
comments

Superficial Love Tab

Band- Slayer
Song- Superficial Love

Riff 1:
-----------------------------------------------------------------------------|
--------------------------------(x3)-----------------------------------------|
-----------------------------------------------------------------------------|
--14--14--14--14--14--14--14----14--14--14--15-------------------------------|
--14--14--14--14--14--14--14----12--12--12--13---15--------------------------|
--12--12--12--12--12--12--12---------------------13--------------------------|

-----------------------------------------------------------------------------|
-----------------------------------------------------------------------------|
-----------------------------------------------------------------------------|
--14--14--14--14--14--14--14----16--15---------------------------------------|
--14--14--14--14--14--14--14----16--15---------------------------------------|
--12--12--12--12--12--12--12----14--13---------------------------------------|

Repeat Riff 1 2 more times, octave lower, and palm mute.

Riff 2:
---------------------------------------------------------------------------|
---------(x4)--------------------------------------------------------------|
---------------------------------------------------------------------------|
--9--9--10-10---9--9--9--9--7--7-------------------------------------------|
--9--9---8--8---7--7--7--7--5--7-------------------------------------------|
--7--7-------------------------5-------------------------------------------|

Riff 3:
-----------------------------------------|
---------------(x4)----------------------|
-----------------------------------------|
--9--9-10-10---10-10-10--11-11-11-11-----|
--7--7--8--8---10-10-10--11-11-11-11-----|
----------------8--8--8---9--9--9--9-----|

Repeat Riff 2

[ Tab from: http://www.guitartabs.cc/tabs/s/slayer/superficial_love_tab.html ]
Riff 4:

--------------------------------------------|
--------------------------------------------|
--------------------------------------------|
--9--10---7--7--7--7--7--7--7--7--7---------|
--9---8---7--7--7--7--7--7--7--7--7---------|
--7-------5--5--5--5--5--5--5--5--5---------|

--------------------------------------------|
--------------------------------------------|
--------------------------------------------|
--9--10---7--7--7--7--7--7--7--7--7---------|
--9---8---7--7--7--7--7--7--7--7--7---------|
--7-------5--5--5--5--5--5--5--5--5---------|

--------------------------------------------|
--------------------------------------------|
--------------------------------------------|
--9--10---7--7--7--7--7--7--7--7--7---------|
--9---8---7--7--7--7--7--7--7--7--7---------|
--7-------5--5--5--5--5--5--5--5--5---------|

-------------------------------------------------------------------------------|
-------------------------------------------------------------------------------|
-------------------------------------------------------------------------------|
--9--10---7--7--7--7--7--7--7--7--7-----9--\-----------------------------------|
--9---8---7--7--7--7--7--7--7--7--7-----9--\-----------------------------------|
--7-------5--5--5--5--5--5--5--5--5-----7--\-----------------------------------|

Riff 2
Riff 3

Then
---------------------------------------------------------------------------|
---------------------------------------------------------------------------|
---------------------------------------------------------------------------|
--7------------------------------------------------------------------------|
--7---10--\----------------------------------------------------------------|
--9----8--\----------------------------------------------------------------|
Comments