Slayer - Strain Of Mind Chords & Tabs

 

Strain Of Mind Chords & Tabs

Slayer Chords & Tabs

Version: 3 Type: Tab 0 ratings
1 star 2 stars 3 stars 4 stars 5 stars
comments

Strain Of Mind Tab

Slayer
Stain of Mind
Tune down 1 1/2 steps

Intro
|------------------------------------------|
|------------------------------------------|
|------------------------------------------|
|---9---9---9---9-8-9---9---9---9---9-12-11|
|---7---7---7---7-6-7---7---7---7---7-10-9-|
|-0---0---0---0-------0---0---0---0--------|

|------------------------------------------|
|------------------------------------------|
|------------------------------------------|
|---9---9---9---9-8-9---9---9---9---9-11-10|
|---7---7---7---7-6-7---7---7---7---7-9--8-|
|-0---0---0---0-------0---0---0---0--------|

|-------------------|
|-------------------|
|-------------------|
|-9---12---11---10--|
|-7---10---9----8---|
|-0-----------------|

Pre-Verse                 3x
Gtr. 1
|--------------------------|
|--------------------------|
|--------------------------|
|--------------------------|
|--------------------------|
|-0-2--0-2--0-2--0-2--0-3--|
|                          |
|Gtr. 2                    |
|--------------------------|
|--------------------------|
|--------------------------|
|--------------------------|
|---------------------2-5--|
|---------------------0-3--|
[ Tab from: http://www.guitartabs.cc/tabs/s/slayer/strain_of_mind_tab_ver_3.html ]
Verse
p.m.......................
|--------------------------|
|--------------------------|
|--------------------------|
|--------------------------|
|-2-4--2-4--2-4--2-4--2-5--|
|-0-2--0-2--0-2--0-2--0-3--|

Pre-Chorus
p.m.................2x (8x 2nd time)
|--------------------|
|--------------------|
|--------------------|
|--------------------|
|--------------------|
|--0-2-3-5--0-2-3-5--|

Chorus              4x
|--------------------|
|--------------------|
|--------------------|
|--------------------|
|--2-4-5-7--2-4-5-7--|
|--0-2-3-5--0-2-3-5--|

Behind Solo
|--------------------------|
|--------------------------|
|--------------------------|
|--------------------------|
|-7-9--7-9--7-9--7-9--7-10-|
|-5-7--5-7--5-7--5-7--5-8--|

Outro
|------------------------------------------|
|------------------------------------------|
|------------------------------------------|
|---9---9---9---9-8-9---9---9---9---9-12-11|
|---7---7---7---7-6-7---7---7---7---7-10-9-|
|-0---0---0---0-------0---0---0---0--------|

|------------------------------------------|
|------------------------------------------|
|------------------------------------------|
|---9---9---9---9-8-9---9---9---9---9-11-10|
|---7---7---7---7-6-7---7---7---7---7-9--8-|
|-0---0---0---0-------0---0---0---0--------|

|-------------------|
|-------------------|
|-------------------|
|-9---12---11---10--|
|-7---10---9----8---|
|-0-----------------|

|-------------------|
|-------------------|
|-------------------|
|-9-----------------|
|-7---5----4----3--2|
|-0---3----2----1--
Comments