Slayer - Strain Of Mind Chords & Tabs

 

Strain Of Mind Chords & Tabs

Slayer Chords & Tabs

Version: 2 Type: Tab 0 ratings
1 star 2 stars 3 stars 4 stars 5 stars
comments

Strain Of Mind Tab

*********HOUSE of SLAYER*********

"Stain of Mind"
by Slayer

tabbed by Shihiza
shihiza@geocities.com

Tune your guitar "Dropped D" 

Play 4x
E|---------------------------------------------|
B|---------------------------------------------|
G|--------------------------------------9-8----|
D|--7-7-7-7-7-7-7-7-6-7-7-7-7-7-7-7-7-7--------|
A|--0-5-0-5-0-5-0-5-4-5-0-5-0-5-0-5-0-5-7-6----|
D|--0-0-0-0-0-0-0-0-----0-0-0-0-0-0-0-0--------|

Play 2x
E|-------------------------|
B|-------------------------|
G|-------------------------|
D|--7----10---9----8-------|
A|--5----8----7----6-------|
D|--0-00---00---00---00----|
Pm    ..   ..   ..   ..

Play 3x
E|------------------------------|
B|------------------------------|
G|------------------------------|
D|--0-2--0-2--0-2--0-2--0--3----|
A|--0-2--0-2--0-2--0-2--0--3----|
D|--0-2--0-2--0-2--0-2--0--3----|

Play 5x
E|---------------------------------------------------------|
B|---------------------------------------------------------|
G|---------------------------------------------------------|
D|----------------------0--3-----------------------0--3----|
A|----------------------0--3-----------------------0--3----|
D|--0-2--0-2--0-2--0-2--0--3---0-2--0-2--0-2--0-2--0--3----|
Pm  . .  . .  . .  . .         . .  . .  . .  . .

Play 2x
E|----------------------------------------|
B|----------------------------------------|
G|----------------------------------------|
D|----------------------------------------|
A|----------------------------------------|
D|--0-2-3-5--0-2-3-5--0-2-3-5--0-2-3-5----|
HPm . . . .  . . . .  . . . .  . . . .

Play 4x
E|----------------------------------------|
B|----------------------------------------|
G|----------------------------------------|
D|--0-2-3-5--0-2-3-5--0-2-3-5--0-2-3-5----|
A|--0-2-3-5--0-2-3-5--0-2-3-5--0-2-3-5----|
D|--0-2-3-5--0-2-3-5--0-2-3-5--0-2-3-5----|

Play 3x
E|------------------------------|
B|------------------------------|
G|------------------------------|
D|--0-2--0-2--0-2--0-2--0--3----|
A|--0-2--0-2--0-2--0-2--0--3----|
D|--0-2--0-2--0-2--0-2--0--3----|


Play 5x
E|---------------------------------------------------------|
B|---------------------------------------------------------|
G|---------------------------------------------------------|
D|----------------------0--3-----------------------0--3----|
A|----------------------0--3-----------------------0--3----|
D|--0-2--0-2--0-2--0-2--0--3---0-2--0-2--0-2--0-2--0--3----|
Pm  . .  . .  . .  . .         . .  . .  . .  . .

[ Tab from: http://www.guitartabs.cc/tabs/s/slayer/strain_of_mind_tab_ver_2.html ]
Play 2x
E|----------------------------------------|
B|----------------------------------------|
G|----------------------------------------|
D|----------------------------------------|
A|----------------------------------------|
D|--0-2-3-5--0-2-3-5--0-2-3-5--0-2-3-5----|
HPm . . . .  . . . .  . . . .  . . . .


Play 4x
E|----------------------------------------|
B|----------------------------------------|
G|----------------------------------------|
D|--0-2-3-5--0-2-3-5--0-2-3-5--0-2-3-5----|
A|--0-2-3-5--0-2-3-5--0-2-3-5--0-2-3-5----|
D|--0-2-3-5--0-2-3-5--0-2-3-5--0-2-3-5----|


Rythm With solo
Play 9x
E|------------------------------|
B|------------------------------|
G|------------------------------|
D|--5-7--5-7--5-7--5-7--8--7----|
A|--5-7--5-7--5-7--5-7--8--7----|
D|--5-7--5-7--5-7--5-7--8--7----|
End Rythm


Play 1x
E|----------------------------------------------|
B|----------------------------------------------|
G|----------------------------------------------|
D|--0-2--0-2--0-2--0-2--0--3---0-2-0-2-0-3-0----|
A|--0-2--0-2--0-2--0-2--0--3---0-2-0-2-0-3-0----|
D|--0-2--0-2--0-2--0-2--0--3---0-2-0-2-0-3-0----|


Play 5x
E|---------------------------------------------------------|
B|---------------------------------------------------------|
G|---------------------------------------------------------|
D|----------------------0--3-----------------------0--3----|
A|----------------------0--3-----------------------0--3----|
D|--0-2--0-2--0-2--0-2--0--3---0-2--0-2--0-2--0-2--0--3----|
Pm  . .  . .  . .  . .         . .  . .  . .  . .


Bassline.....
D|--0-2-3-5--0-2-3-5--0-2-3-5--0-2-3-5----|


Play 4x
E|----------------------------------------|
B|----------------------------------------|
G|----------------------------------------|
D|--0-2-3-5--0-2-3-5--0-2-3-5--0-2-3-5----|
A|--0-2-3-5--0-2-3-5--0-2-3-5--0-2-3-5----|
D|--0-2-3-5--0-2-3-5--0-2-3-5--0-2-3-5----|


Play 4x
E|---------------------------------------------|
B|---------------------------------------------|
G|--------------------------------------9-8----|
D|--7-7-7-7-7-7-7-7-6-7-7-7-7-7-7-7-7-7--------|
A|--0-5-0-5-0-5-0-5-4-5-0-5-0-5-0-5-0-5-7-6----|
D|--0-0-0-0-0-0-0-0-----0-0-0-0-0-0-0-0--------|


E|----------------------------------------------|
B|----------------------------------------------|
G|----------------------------------------------|
D|--7-----------------7----10----9----8----7----|
A|--5----8----7----6--5----8-----7----6----5----|
D|--0-00--------------0-00----00---00---00-0----|

The End.
Questions, Comments, Corrections, Email shihiza@geocities.com

>From HOUSE of SLAYER
Comments