Slayer - Stain Of Mind Chords & Tabs

 

Stain Of Mind Chords & Tabs

Slayer Chords & Tabs

Version: 1 Type: Tab 1 rating
1 star 2 stars 3 stars 4 stars 5 stars
comments

Stain Of Mind Tab

Stain Of Mind
Slayer
Off the 1998 Album Diabolus In Musica
Transcribed By: Mike Bower
Tune down 1 and ½ steps
6 - C#
5 - F#
4 - B
3 - E
2 - G#
1 - C#
Intro
I will only show the necessary strings, which are the bottom two.

|----7---7---7---7-6-7---7---7---7---7-10-9-------|
|--0---0---0---0-------0---0---0---0--------------|

|----7---7---7---7-6-7---7---7---7---7-9-8------|
|--0---0---0---0-------0---0---0---0------------|
Repeat Above

|------10---9---8-------10---9---8----|
|--0-0----0---0---0-0-0----0---0---0--|
   * *    *   *   * * *    *   *   *
[ Tab from: http://www.guitartabs.cc/tabs/s/slayer/stain_of_mind_tab.html ]
|----4---4---4---4--2-5----------------------|
|--0-2-0-2-0-2-0-2--0-3----------------------|

|----4---4---4---4--2-5-----------|
|--0-2-0-2-0-2-0-2--0-3-----------|
   *--------------|
|----------------------------------|
|--0--2--3--5---0--2--3--5---------|
   *----------------------|

|--2--4--5--7---2--4--5--7-----------------|
|--0--2--3--5---0--2--3--5-----------------|
Riff Under Solo
|----4---4---4---4-5------------|
|--0-2-0-2-0-2-0-2-3--6---------|
|---------------------4---------|
Ending
|------10---9---8---2---5---4---3---2-------|
|--0-0----0---0---0-0-0-3-0-2-0-1-0-0-------|
   * *    *   *   *   *   *   *   *
An easy but kick ass Slayer song. I hope you have fun with it.
E-mail me at guitargod8852@hotmail.com.
Comments