Slayer - Spiritual Law Chords & Tabs

 

Spiritual Law Chords & Tabs

Slayer Chords & Tabs

Version: 1 Type: Bass Tab 0 ratings
1 star 2 stars 3 stars 4 stars 5 stars
comments

Spiritual Law Bass Tab

Band- Slayer
Song- Spiritual Law

Riff 1:
Gb|------------------------------------|
Db|------------------------------------|
Ab|------------------------------------|
Eb|--3-2-2-3-2-2-3-2-3-2-2-3-2-2-3-2-0-|

Riff 2:
Gb|------------------------------------------------------|
Db|------------------------------------------------------|
Ab|--7-7-7-7-8-8-6-6-7-7-7-7-8-8-6-6-10-10-10-10-9-9-9-9-|
Eb|------------------------------------------------------|
[ Tab from: http://www.guitartabs.cc/tabs/s/slayer/spiritual_law_btab.html ]
Riff 3:
Gb|----------------------------------|
Db|----------------------------------|
Ab|--7-7-7-7-7-7-7-7-8-8-8-8-8-8-8-8-|
Eb|----------------------------------|

Gb|------------------------------------------|
Db|------------------------------------------|
Ab|--5-5-5-5-5-5-5-5-10-10-10-10-10-10-10-10-|
Eb|------------------------------------------|

Riff 4:
Gb|-----------------------------------------------|
Db|-5-------4-------5-------4---------------4-/-9-|
Ab|-----5-------4-------5-------4---2-2-2-2-------|
Eb|-----------------------------------------------|

Gb|------------------------------|
Db|------------------------------|
Ab|--2-2--2-2-2--0---0--2--3---3-|
Eb|------------------------------|
Comments