Slayer - Spirit In Black Chords & Tabs

 

Spirit In Black Chords & Tabs

Slayer Chords & Tabs

Version: 1 Type: Tab 0 ratings
1 star 2 stars 3 stars 4 stars 5 stars
comments

Spirit In Black Tab

Spirit In Black
Slayer
From the 1990 Album Seasons In The Abyss
Transcribed By: Mike Bower
Words By: Kerry King
Music By: Jeff Hanneman
Tune Down ½ Step
[ Tab from: http://www.guitartabs.cc/tabs/s/slayer/spirit_in_black_tab.html ]
|--------------------------------------------------------------|
|--------------------------------------------------------------|
|--------------------------------------------------------------|
|-------------------------------------------------------5--3---|
|--2-----7p5-----8p7-----10p8-----2-----7p5-----8p7-----5--3---|
|--0-0-0-----0-0-----0-0------0-0-0-0-0-----0-0-----0-0-3--1---|
     * *     * *     * *      * *   * *     * *     * *
|--------------------------------------------------------------|
|--------------------------------------------------------------|
|--------------------------------------------------------------|
|-----------------------------------------------------------3--|
|--2-----7p5-----8p7-----10p8-----2-----7p5-----2-3-2-------3--|
|--0-0-0-----0-0-----0-0------0-0-0-0-0-----0-0-------3-2-0-1--|
     * *     * *     * *      * *   * *     *--------------|
Rhy Fig 1
|---------------------------------------------------------------|
|---------------------------------------------------------------|
|---------------------------------------------------------------|
|---------------------------------------------------------------|
|-2--2-2-2-2-2-2-2-2-2-2-2-2-2-2-2-----7p5-----8p7-----10p8-----|
|-0--0-0-0-0-0-0-0-0-0-0-0-0-0-0-0-0-0-----0-0-----0-0------0-0-|
     *--------------------------------|    * *     * *      * *
|-------------------------------------------------------------|
|-------------------------------------------------------------|
|-------------------------------------------------------------|
|------------------------------------------------------5--3---|
|-2--2-2-2-2-2-2-2-2-2-2-2-2-2-2-2-----7p5-----8p7-----3--3---|
|-0--0-0-0-0-0-0-0-0-0-0-0-0-0-0-0-0-0-----0-0-----0-0-3--1---|
     *--------------------------|  * *     * *     * *
|-------------------------------------------------------------|
|-------------------------------------------------------------|
|-------------------------------------------------------------|
|--------------------------------------------3-2--------------|
|--2-----3-------------3-------------3-----2-----3-2-1--------|
|--0-0-0-1-0-0-0-0-0-0-1-0-0-0-0-0-0-1-0-0-------------2-1----|
     * *   * * * * * *   * * * * * *   *------------------|
|----------------------------------------------------------|
|----------------------------------------------------------|
|----------------------------------------------------------|
|--------------------------------------------3-2-------1---|
|--2-----3-------------3-------------3-----2-----3-2---1---|
|--0-0-0-1-0-0-0-0-0-0-1-0-0-0-0-0-0-1-0-0-----------3-----|
     * *   * * * * * *   * * * * * *   *--------------|
|------------------------------------------------------------|
|------------------------------------------------------------|
|------------------------------------------------------------|
|--------------------------------------------3-2-------------|
|--2-----3-------------3-------------3-----2-----3-2-1-------|
|--0-0-0-1-0-0-0-0-0-0-1-0-0-0-0-0-0-1-0-0-------------2-1---|
     * *   * * * * * *   * * * * * *   *------------------|
|----------------------------------------------------------|
|----------------------------------------------------------|
|----------------------------------------------------------|
|----------------------------------------------------------|
|--2-----3-------------3-------------3-----2-3-2-------3---|
|--0-0-0-1-0-0-0-0-0-0-1-0-0-0-0-0-0-1-0-0-------3-2-0-1---|
     * *   * * * * * *   * * * * * *   *--------------|
|---------------------------------------------|
|---------------------------------------------|
|---------------------------------------------|
|---------------------------------------------|
|------------------5h6p5h7p6p5h6p5h6p5--------|
|--0-0-0-0-0-0-0-0----------------------------|
   *--------------|
|----------------------------------------|
|----------------------------------------|
|----------------------------------------|
|----------------------------------------|
|------------------5h6p5h7p6p5--6--------|
|--0-0-0-0-0-0-0-0--------------4--------|
   *--------------|
my e-mail is guitargod8852@hotmail.com
Comments