Slayer - Spirit In Black Chords & Tabs

 

Spirit In Black Chords & Tabs

Slayer Chords & Tabs

Version: 1 Type: Bass Tab 0 ratings
1 star 2 stars 3 stars 4 stars 5 stars
comments

Spirit In Black Bass Tab

   
**********************************************************************
This tab file was downloaded from THE ABYSS - the complete Slayer site                      http://www.slaytanic.com/
**********************************************************************

                      Spirit in Black - Slayer
                      ========================

Tune down 1/2 step (Eb,Ab,Db,Gb)

 124 bpm
|-----------------|-----------------|-----------------|-----------------|
|-----------------|-----------------|-----------------|-----------------|
|-7---------------|-----------------|-----------------|-----------------|
|-----------------|-------------31--|-0---------------|-0-------0-----1-|

|---------------------|-------------------|---------------------|------------------||
|---------------------|-------------------|---------------------|------------------||
|-----7p5--8p7--10p8--|-----7p5--8p7------|-----7p5--8p7--10p8--|-----7p5----------||
|-0-00---00---00----00|-0-00---00---0031--|-0-00---00---00----00|-0-00---000-------||
  1   2    3    4       1   2    3    4  etc.

 verse 1
|-----------------|---------------------|-----------------|-------------------|
|-----------------|---------------------|-----------------|-------------------|
|-----------------|-----7p5--8p7--10p8--|-----------------|-----7p5--8p7------|
|-0-00000000000000|-0-00---00---00----00|-0-00000000000000|-0-00---00---0031--|

|-----------------|---------------------|-----------------|-------------------|
|-----------------|---------------------|-----------------|-------------------|
|-----------------|-----7p5--8p7--10p8--|-----------------|-----7p5--8p7------|
|-0-00000000000000|-0-00---00---00----00|-0-00000000000000|-0-00---00---0031--|

 chorus
|-----------------|-----------------|-----------------|-----------------|
|-----------------|----------32-----|-----------------|----------32-----|
|-----------------|---------2--321--|-----------------|---------2--32-1-|
|-0-001-0000001-00|-00001-00------21|-0-001-0000001-00|-00001-00-----3--|

|-----------------|-----------------|-----------------|-----------------||
|-----------------|----------32-----|-----------------|-----------------||
|-----------------|---------2--321--|-----------------|---------2323----||
|-0-001-0000001-00|-00001-00------21|-0-001-0000001-00|-00001-00----201-||

|---------------------|-------------------|---------------------|------------------||
|---------------------|-------------------|---------------------|------------------||
|-----7p5--8p7--10p8--|-----7p5--8p7------|-----7p5--8p7--10p8--|-----7p5----------||
|-0-00---00---00----00|-0-00---00---0031--|-0-00---00---00----00|-0-00---000-------||

 verse 2
|-----------------|---------------------|-----------------|-------------------|
|-----------------|---------------------|-----------------|-------------------|
|-----------------|-----7p5--8p7--10p8--|-----------------|-----7p5--8p7------|
|-0-00000000000000|-0-00---00---00----00|-0-00000000000000|-0-00---00---0031--|

|-----------------|---------------------|-----------------|-------------------|
|-----------------|---------------------|-----------------|-------------------|
|-----------------|-----7p5--8p7--10p8--|-----------------|-----7p5--8p7------|
|-0-00000000000000|-0-00---00---00----00|-0-00000000000000|-0-00---00---0031--|

 chorus
|-----------------|-----------------|-----------------|-----------------|
|-----------------|----------32-----|-----------------|----------32-----|
|-----------------|---------2--321--|-----------------|---------2--32-1-|
|-0-001-0000001-00|-00001-00------21|-0-001-0000001-00|-00001-00-----3--|

|-----------------|-----------------|-----------------|-----------------||
|-----------------|----------32-----|-----------------|-----------------||
|-----------------|---------2--321--|-----------------|---------2323----||
|-0-001-0000001-00|-00001-00------21|-0-001-0000001-00|-00001-00----201-||

 guitar solo I
|-----------------|---------------------|-----------------|-------------------|
|-----------------|---------------------|-----------------|-------------------|
|-----------------|-----7p5--8p7--10p8--|-----------------|-----7p5--8p7------|
|-0-00000000000000|-0-00---00---00----00|-0-00000000000000|-0-00---00---0031--|

|-----------------|---------------------|-----------------|-------------------|
|-----------------|---------------------|-----------------|-------------------|
|-----------------|-----7p5--8p7--10p8--|-----------------|-----7p5--8p7------|
|-0-00000000000000|-0-00---00---00----00|-0-00000000000000|-0-00---00---0031--|

 chorus
|-----------------|-----------------|-----------------|-----------------|
|-----------------|----------32-----|-----------------|----------32-----|
|-----------------|---------2--321--|-----------------|---------2--32-1-|
|-0-001-0000001-00|-00001-00------21|-0-001-0000001-00|-00001-00-----3--|

|-----------------|-----------------|-----------------|-----------------||
|-----------------|----------32-----|-----------------|-----------------||
|-----------------|---------2--321--|-----------------|---------2323----||
|-0-001-0000001-00|-00001-00------21|-0-001-0000001-00|-00001-00----201-||

 220 bpm
2/4       4/4
|---------|-----------------|-----------------|-----------------|-----------------||
|---------|-----------------|-----------------|-----------------|-----------------||
|---------|-----------------|-----------------|-----------------|-----------------||
|---------|-0---------------|(0)--------------|(0)--------------|(0)--------------||

|-----------------|-----------------|-----------------|-----------------|
|-----------------|-----------------|-----------------|-----------------|
|-----------------|-----------------|-----------------|-----------------|
|-----------------|-----------------|-----------------|-----------------|

|-----------------|-----------------|-----------------|-----------------||
|-----------------|-----------------|-----------------|-----------------||
|-----------------|-----------------|-----------------|-----------------||
|--------0--------|-0---------------|---------0-------|-0-----------4---||

 bridge
|-----------------|-------------------|-----------------|-------------------|
|-----------------|----------hphpphphp|-----------------|----------hphpp----|
|-----------------|---------5657656565|-----------------|---------565765----|
|-0000000000000000|-00000000----------|-0000000000000000|-00000000------4---|
                            {  6 }                                {  6 }
[ Tab from: http://www.guitartabs.cc/tabs/s/slayer/spirit_in_black_btab.html ]
|-----------------|-------------------|-----------------|-------------------|
|-----------------|----------hphpphphp|-----------------|----------hphpp----|
|-----------------|---------5657656565|-----------------|---------565765----|
|-0000000000000000|-00000000----------|-0000000000000000|-00000000------4---|
                            {  6 }                                {  6 }

|-----------------|-------------------|-----------------|-------------------|
|-----------------|----------hphpphphp|-----------------|----------hphpp----|
|-----------------|---------5657656565|-----------------|---------565765----|
|-0000000000000000|-00000000----------|-0000000000000000|-00000000------4---|
                            {  6 }                                {  6 }

|-----------------|-------------------|-----------------|-------------------||
|-----------------|----------hphpphphp|-----------------|----------hphpp----||
|-----------------|---------5657656565|-----------------|---------565765----||
|-0000000000000000|-00000000----------|-0000000000000000|-00000000------4---||
                            {  6 }                                {  6 }

|-----------------|-----------------||
|-----------------|-----------------||
|-----------------|-----------------||
|---------0-------|-0-----------4---||

 bridge
|-----------------|-------------------|-----------------|-------------------|
|-----------------|----------hphpphphp|-----------------|----------hphpp----|
|-----------------|---------5657656565|-----------------|---------565765----|
|-0000000000000000|-00000000----------|-0000000000000000|-00000000------4---|
                            {  6 }                                {  6 }

|-----------------|-------------------|-----------------|-------------------|
|-----------------|----------hphpphphp|-----------------|----------hphpp----|
|-----------------|---------5657656565|-----------------|---------565765----|
|-0000000000000000|-00000000----------|-0000000000000000|-00000000------4---|
                            {  6 }                                {  6 }

|-----------------|-------------------|-----------------|-------------------|
|-----------------|----------hphpphphp|-----------------|----------hphpp----|
|-----------------|---------5657656565|-----------------|---------565765----|
|-0000000000000000|-00000000----------|-0000000000000000|-00000000------4---|
                            {  6 }                                {  6 }

|-----------------|-------------------|-----------------|-------------------||
|-----------------|----------hphpphphp|-----------------|----------hphpp----||
|-----------------|---------5657656565|-----------------|---------565765----||
|-0000000000000000|-00000000----------|-0000000000000000|-00000000------4---||
                            {  6 }                                {  6 }

 guitar solo II
|-----------------|-----------------|-----------------|-----------------|
|-----------------|-----------------|-----------------|-----------------|
|-----------------|-----------------|-----------------|-----------------|
|-3333333333333333|-333333333-1---3-|-4444444444444444|-444444444-7---4-|

|-----------------|-----------------|-----------------|-----------------|
|-----------------|-----------------|-----------------|-----------------|
|-----------------|-----------------|-----------------|-----------------|
|-3333333333333333|-333333333-1---3-|-4444444444444444|-444444444-7---4-|

|-----------------|-----------------|-----------------|-----------------|
|-----------------|-----------------|-----------------|-----------------|
|-----------------|-----------------|-----------------|-----------------|
|-3333333333333333|-333333333-1---3-|-4444444444444444|-444444444-7---4-|

|-----------------|-----------------|-----------------|-----------------||
|-----------------|-----------------|-----------------|-----------------||
|-----------------|-----------------|-----------------|-----------------||
|-3333333333333333|-333333333-1---3-|-4444444444444444|-444444444-7---4-||

|-----------------|-----------------|-----------------|-----------------|
|-----------------|-----------------|-----------------|-----------------|
|-----------------|-----------------|-----------------|-----------------|
|-1111111111111111|-111111111-2---2-|-1111111111111111|-111111111-2---2-|

|-----------------|-----------------|-----------------|-----------------||
|-----------------|-----------------|-----------------|-----------------||
|-----------------|-----------------|-----------------|-----------------||
|-1111111111111111|-111111111-2---2-|-1111111111111111|-111111111-2---2-||

2/4       4/4
|---------|-----------------|-----------------|-----------------|-----------------||
|---------|-----------------|-----------------|-----------------|-----------------||
|---------|-----------------|-----------------|-----------------|-----------------||
|---------|-0---------------|(0)--------------|(0)--------------|(0)--------------||

 verse 3
|-----------------|-------------------|-----------------|-------------------|
|-----------------|----------hphpphphp|-----------------|----------hphpp----|
|-----------------|---------5657656565|-----------------|---------565765----|
|-0000000000000000|-00000000----------|-0000000000000000|-00000000------4---|
                            {  6 }                                {  6 }

|-----------------|-------------------|-----------------|-------------------|
|-----------------|----------hphpphphp|-----------------|----------hphpp----|
|-----------------|---------5657656565|-----------------|---------565765----|
|-0000000000000000|-00000000----------|-0000000000000000|-00000000------4---|
                            {  6 }                                {  6 }

|-----------------|-------------------|-----------------|-------------------|
|-----------------|----------hphpphphp|-----------------|----------hphpp----|
|-----------------|---------5657656565|-----------------|---------565765----|
|-0000000000000000|-00000000----------|-0000000000000000|-00000000------4---|
                            {  6 }                                {  6 }

|-----------------|-------------------|-----------------|-------------------||
|-----------------|----------hphpphphp|-----------------|----------hphpp----||
|-----------------|---------5657656565|-----------------|---------565765----||
|-0000000000000000|-00000000----------|-0000000000000000|-00000000------4---||
                            {  6 }                                {  6 }

|-----------------|-----------------|-----------------|-----------------||
|-----------------|-----------------|-----------------|-----------------||
|-----------------|-----------------|-----------------|-----------------||
|---------0-------|-0-----------4---|(4)--------------|-7---4-3---------||


Comments