Slayer - Spill The Blood Chords & Tabs

 

Spill The Blood Chords & Tabs

Slayer Chords & Tabs

Version: 6 Type: Tab 0 ratings
1 star 2 stars 3 stars 4 stars 5 stars
comments

Spill The Blood Tab

spill the blood  tab by slayer

 classical intro

this song is played with the 6th string tuned down to a re#

|-6--------6------------5--------5-----------|
|-----4--------4------------4--------4-------|
|---3---3----3---3--------3---3----3---3-----|
|--------------------------------------------|
|--------------------------------------------|
|--------------------------------------------|

|---------1------------2-----------0---------|
|-----4--------4------------4----------4-----|
|---3---3----3---3--------3---3------3---3---| x 4
|-3-------3------------4-----------2---------|
|--------------------------------------------|
|--------------------------------------------|

|--------------------------------------------|
|--------------------------------------------|
|-3-------2----------------------------------|  x 2
|-3-------2------3-----4-----2---------------|
|-1-------0------3-----4-----2---------------|
|----------------2-----3-----1---------------|

|--------------------------------------------|
|--------------------------------------------|
|-------------8--------7---------------------|
|-----8-9-------9--------8--------------7----|
|---6-----------------------9--6--9--8-------|
|-0--------0--------0------------------------|

|--------------------------------------------|
|--------------------------------------------|
|---------------------------------5---4------|
|---4--6--7--4--6--7-----4--6--7----6---5----|
|-4-------------------4----------------------|
|--------------------------------------------|
[ Tab from: http://www.guitartabs.cc/tabs/s/slayer/spill_the_blood_tab_ver_6.html ]
|--------------------------------------------|
|--------------------------------------------|
|--------------8------7----------------------|
|------8-9-------9------8-------------7------|
|---6-------------------------6--9-8---------|
|-0---------0-------0-------0----------------|

|--------------------------------------------|
|--------------------------------------------|
|--------------------------------5----4------|
|---4--6--7--4--6--7----4--6--7----6----5----|
|-4-------------------4----------------------|
|--------------------------------------------|

|-------------------------------------------------------|
|-------------------------------------------------------|
|-------------8------7----------------------------------|
|------8-9------9------8---------------7-pick harmonic--|
|---6------------------------6--9--8--------------------|
|-0---------0------0------------------------------------|

|--------------------------------------------------|
|--------------------------------------------------|
|------------6--8--9------------5---4--------------|
|---4--6--7--4--6--7---4--6--7----6---5------------|
|-4------------------4-----------------------------|
|--------------------------------------------------|

|-------------------------------------------|
|-------------------------------------------|
|--------------8------7---------------------|
|------8-9-------9------8-------------7-----|
|---6-------------------------6--9--8-------|
|-0----------0-----0--------0---------------|

|-------------------------------------------------------------|
|-------------------------------------------------------------|
|------------6--8--9--------------5---4-----------------------|
|---4--6--7--4--6--7----4--6--7-----6---5\~~~~~4-----3----1---|
|-4-------------------4------------------------4-----3----1---|
|----------------------------------------------3-----1----0---|

steve,,,    pompom@sympatico.ca              pompom020366@hotmail.com
Comments