Slayer - Spill The Blood Chords & Tabs

 

Spill The Blood Chords & Tabs

Slayer Chords & Tabs

Version: 5 Type: Tab 0 ratings
1 star 2 stars 3 stars 4 stars 5 stars
comments

Spill The Blood Tab

E |-6---------------6---------------|-5---------------5----------------|
B |---------4---------------4-------|---------4---------------4--------|
G |-----3-------3-------3-------3---|-----3-------3-------3--------3---|
D |---------------------------------|----------------------------------|
A |---------------------------------|----------------------------------|
E |---------------------------------|----------------------------------|
[ Tab from: http://www.guitartabs.cc/tabs/s/slayer/spill_the_blood_tab_ver_5.html ]
E |-1---------------1---------------|-2---------------0----------------|
B |---------4---------------4-------|---------4---------------4--------|
G |-----3-------3-------3-------3---|-----3-------3-------3-------3----|
D |---------------------------------|----------------------------------|
A |---------------------------------|----------------------------------|
E |---------------------------------|----------------------------------|

the other things submitted look quite okay, but the intro was awfully wrong.
this should be the right one. if you wish to send comment; coenvdwel@planet.nl
Comments