Slayer - Spill The Blood Chords & Tabs

 

Spill The Blood Chords & Tabs

Slayer Chords & Tabs

Version: 1 Type: Bass Tab 0 ratings
1 star 2 stars 3 stars 4 stars 5 stars
comments

Spill The Blood Bass Tab

Band- Slayer
Song- Spill The Blood

Gb--------------------------------------------|
Db--------------------------------------------|
Ab--------------------------------------------|
Eb----3----1----1----0-0-0-1-0-3-0-1-0-0-0-0--|


---------------------------------------------|
---------------------------------------------|
---------------------------------------------|
-0-0-0-0-------------------------------------|


--------------------------------------------|
----------1---------------------------------|
-0-h1-h2------------------------------------|
--------------------------------------------|
[ Tab from: http://www.guitartabs.cc/tabs/s/slayer/spill_the_blood_btab.html ]
Gb------------------------------------------------------------------------------|
Db---------------------------------------------------------------------------1--|
Ab-----------------------------------------------------------------0-h1-h2------|
Eb--2-2-2-2-2-2-2-2-5-2-2-2-5-5-2-1-0-0-0-1-0-3-0-1-0---------------------------|

Gb--------------------------------------------|
Db--------------------------------------------|
Ab----------2--1------------------------------|
Eb---0-0-0---0--0-2-1-0-0-0-0-0-0-0-0---------|

Gb--------------------------------------------|
Db--------------------------------------------|
Ab-----------2--1-----------------------------|
Eb----0-0-0---0--0-2-1-0-0-0-0-2-5------------|


Gb----------------|
Db----------------|
Ab----------------|
Eb---3---1---0----|
Comments