Slayer - Skeletons Of Society Chords & Tabs

 

Skeletons Of Society Chords & Tabs

Slayer Chords & Tabs

Version: 2 Type: Tab 0 ratings
1 star 2 stars 3 stars 4 stars 5 stars
comments

Skeletons Of Society Tab

SONG: Skeletons Of Society
ARTIST: Slayer
ALBUM: Seasons In The Abyss
Tabbed by: David Lichter (lichter@ebox.tninet.se)

PM = Palm Mute

Tune down 1/2 step to Eb Ab Db...

Eb|-----------------------------------------|
Bb|-----------------------------------------|
Gb|-----------------------------------------|
Db|-----------------------------------------|
Ab|--2-2-2-2-2-2-2-2--3--2-2--3-------------|
Eb|--0-0-0-0-0-0-0-0--1--0-0--1-------------|
  PM|---------------|   |---|
[ Tab from: http://www.guitartabs.cc/tabs/s/slayer/skeletons_of_society_tab_ver_2.html ]
Eb|-----------------------------------------|
Bb|-----------------------------------------|
Gb|-----------------------------------------|
Db|-----------------------------------------|
Ab|--6-6-6-6-6-6-6-6--7--6-6--7-------------|
Eb|--4-4-4-4-4-4-4-4--5--4-4--5-------------|
  PM|---------------|   |---|

Guitar 1
Eb|-------------------------------|
Bb|-------------------------------|
Gb|-------------------------------|
Db|-------------------------------|
Ab|---8--7--6--5------------------|
Eb|---6--5--4--3------------------|

Guitar 2
Eb|-------------------------------|
Bb|-------------------------------|
Gb|--16-14--------10-9-8-7--------|


Eb|-------------------------------|
Bb|-------------------------------|
Gb|-------------------------------|
Db|-----------------4-3-----------|
Ab|--2-2-2-2-2-2-2--2-1-----------|
Eb|--0-0-0-0-0-0-0----------------|
  PM|-------------|


Any comments, questions mail me at: lichter@ebox.tninet.se
Comments