Slayer - Silent Scream Chords & Tabs

 

Silent Scream Chords & Tabs

Slayer Chords & Tabs

Version: 2 Type: Tab 0 ratings
1 star 2 stars 3 stars 4 stars 5 stars
comments

Silent Scream Tab

SONG: Silent Scream 
ARTIST: Slayer
ALBUM: South Of Heaven
Tabbed by: David Lichter (lichter@ebox.tninet.se)


Tune down 1/2 step.

Intro:
Eb|-----------------------------------|
Bb|-----------------------------------|
Gb|-----------------------------------|
Db|--------------------------4--3-----|
Ab|--------------------------2--1-----|
Eb|-0-0-0-0-0-0-0-0-0-0-0-0-----------|
 PM|-----------------------|

  Nightmare, the persecution...
Eb|--------------------------------|
Bb|--------------------------------|
Gb|--------------------------------|
Db|----9----8----------------------|
Ab|-7---10---9--8/10--7------------|
Eb|--------------------------------|

   
Chorus:
   Silent scream, bury the...
Eb|--------------------------------|
Bb|--------------------------------|
Gb|--------------------------------|
Db|--4----3------------------------|
Ab|--2----1------------------------|
Eb|--------------------------------|

Eb|--------------------------------|
Bb|--------------------------------|
Gb|--------------------------------|
Db|-4--2--4--2--4--2--4--5---------|
Ab|-2--0--2--0--2--0--2--3---------|
Eb|--------------------------------|

   Beaten and torn, sacrifice the... 
Eb|--------------------------------|
Bb|--------------------------------|
Gb|--------------------------------|
Db|--4----3------------------------|
Ab|--2----1------------------------|
Eb|--------------------------------|

Eb|---------------------------|
Bb|---------------------------|
Gb|---------------------------|
Db|-4--2--4--2--4--2--4--5----|
Ab|-2--0--2--0--2--0--2--3----|
Eb|---------------------------|

Eb|-------------------------------|
Bb|-------------------------------|
Gb|-------------------------------|
Db|--9--7--9--7--9--7--9--10------|
Ab|--7--5--7--5--7--5--7--8-------|
Eb|-------------------------------|

  Shattered, adolescent...
Eb|--------------------------------|
Bb|--------------------------------|
Gb|--------------------------------|
Db|----9----8----------------------|
Ab|-7---10---9--8/10--7------------|
Eb|--------------------------------|


   Silent scream, crucify bastard...
Eb|--------------------------------|
Bb|--------------------------------|
Gb|--------------------------------|
Db|--4----3------------------------|
Ab|--2----1------------------------|
Eb|--------------------------------|
[ Tab from: http://www.guitartabs.cc/tabs/s/slayer/silent_scream_tab_ver_2.html ]
Eb|--------------------------------|
Bb|--------------------------------|
Gb|--------------------------------|
Db|-4--2--4--2--4--2--4--5---------|
Ab|-2--0--2--0--2--0--2--3---------|
Eb|--------------------------------|

   Beaten and torn, sanctify lives..
Eb|--------------------------------|
Bb|--------------------------------|
Gb|--------------------------------|
Db|--4----3------------------------|
Ab|--2----1------------------------|
Eb|--------------------------------|

Eb|---------------------------|
Bb|---------------------------|
Gb|---------------------------|
Db|-4--2--4--2--4--2--4--5----|
Ab|-2--0--2--0--2--0--2--3----|
Eb|---------------------------|

Eb|-------------------------------|
Bb|-------------------------------|
Gb|-------------------------------|
Db|--9--7--9--7--9--7--9--10------|
Ab|--7--5--7--5--7--5--7--8-------|
Eb|-------------------------------|


Solo

After the solo it's a riff that I couldn't tab out

Eb|-----------------------------------|
Bb|-----------------------------------|
Gb|-----------------------------------|
Db|--------------------------4--3-----|
Ab|--------------------------2--1-----|
Eb|-0-0-0-0-0-0-0-0-0-0-0-0-----------|
 PM|-----------------------|


Nightmare, the persecution...
Eb|--------------------------------|
Bb|--------------------------------|
Gb|--------------------------------|
Db|----9----8----------------------|
Ab|-7---10---9--8/10--7------------|
Eb|--------------------------------|

   Innocence with drawn in fear...
Eb|--------------------------------|
Bb|--------------------------------|
Gb|--------------------------------|
Db|--4----3------------------------|
Ab|--2----1------------------------|
Eb|--------------------------------|

Eb|--------------------------------|
Bb|--------------------------------|
Gb|--------------------------------|
Db|-4--2--4--2--4--2--4--5---------|
Ab|-2--0--2--0--2--0--2--3---------|
Eb|--------------------------------|

   Fires burning can you hear...
Eb|--------------------------------|
Bb|--------------------------------|
Gb|--------------------------------|
Db|--4----3------------------------|
Ab|--2----1------------------------|
Eb|--------------------------------|
      cries...
Eb|---------------------------|
Bb|---------------------------|
Gb|---------------------------|
Db|-4--2--4--2--4--2--4--5----|
Ab|-2--0--2--0--2--0--2--3----|
Eb|---------------------------|

   ...in the night.
Eb|-------------------------------|
Bb|-------------------------------|
Gb|-------------------------------|
Db|--9--7--9--7--9--7--9----------|
Ab|--7--5--7--5--7--5--7----------|
Eb|-------------------------------|


This song wasn't easy to tab out.

Any comments, questions mail me: lichter@ebox.tninet.se
Comments