Slayer - Sick Boy Chords & Tabs

 

Sick Boy Chords & Tabs

Slayer Chords & Tabs

Version: 1 Type: Bass Tab 0 ratings
1 star 2 stars 3 stars 4 stars 5 stars
comments

Sick Boy Bass Tab

Band- Slayer
Song- Sick Boy

Riff 1:
Gb|------------------|
Db|------------------|
Ab|----7---5---4---5-|
Eb|--0---0---0---0---|

Riff 2:
Gb|----------------|
Db|----------------|
Ab|--7-7-7-7-5-7-7-|
Eb|----------------|
[ Tab from: http://www.guitartabs.cc/tabs/s/slayer/sick_boy_btab.html ]
Riff 3:
Gb|--------------------------------|
Db|--------------------------------|
Ab|-9--9--9--10-9--9---7-7-7-5-7-7-|
Eb|--------------------------------|

Riff 4: [4 Times]
Gb|--------------|
Db|--------------|
Ab|-9--7-9--10-9-|
Eb|--------------|

Gb|-----------------------|
Db|-----------------------|
Ab|--7------7------7------|
Eb|-----------------------|

Playlist:
Riff 1 x8
Riff 2 x8
Riff 3 x3
Riff 2 x8
Riff 3 x3
Riff 4 x4
Riff 2 x8
Riff 3 x3
Riff 2 x8
Riff 3 x3
Riff 2 x8
Comments