Slayer - Sex Murder Art Chords & Tabs

 

Sex Murder Art Chords & Tabs

Slayer Chords & Tabs

Version: 1 Type: Bass Tab 0 ratings
1 star 2 stars 3 stars 4 stars 5 stars
comments

Sex Murder Art Bass Tab

   
Band- Slayer
Song- Sex Murder Art

Gtr I (Eb Ab Db Gb) - 'Tom Araya'

   Intro
    Q=220                                    1.              2.
   4/4
    Gtr I
    Q  Q  Q  Q    Q  Q  Q  Q    Q  Q  Q  Q    Q  Q  Q  Q      Q  Q  Q  Q
||--------------|-------------|-------------|--------------||-------------|
||o-------------|-------------|-------------|-------------o||-------2-----|
||o-4-----4-----|-4-----4-----|-4-----4-----|-4-----4-----o||-4-----------|
||--------------|-------------|-------------|--------------||----------0--|


                                                         1.
    E E E E E E E E   E E E E E E E E   E E E E E E E E   E E E E E E E E
||------------------|-----------------|-----------------|-------------------||
||o-----------------|-----------------|-----------------|------------------o||
||o---------1-------|-3---2---1-------|---------1-------|-3---2---1--------o||
||--0-2-3-0---2-0-2-|---2---2---3-2-1-|-0-2-3-0---2-0-2-|---2---2---3-2-1---||


                                  Verse 1
  2.
                ~~~~~~~~
  E E E E E E E E   +W             S S S S S S S S S S S S S S S S
|-----------------|------------||-----------------------------------|
|-----------------|------------||o----------------------------------|
|-3---2---1-------|------------||o----------------------------------|
|---2---2---3-2-1-|-(1)--------||--1S3-3-3-3-3-4-3-3-3-3-3-3-3-3-3--|


  S S S S S S S S S S S S S S E   S S S S S S S S S S S S S S S S
|-------------------------------|----------------------------------|
|-------------------------------|----------------------------------|
|-------------------------3h4p3-|----------------------------------|
|-1S3-3-3-3-3-4-3-3-3-3-3-------|-1S3-3-3-3-3-4-3-3-3-3-3-3-3-3-3--|


  S S S S S S S S Q  Q    S S S S S S S S S S S S S S S S
|-----------------------|---------------------------------|
|-----------------------|---------------------------------|
|-----------------------|---------------------------------|
|-1S3-3-3-3-3-3-3-3--2--|-1S3-3-3-3-3-4-3-3-3-3-3-3-3-3-3-|


  S S S S S S S S S S S S S S E   S S S S S S S S S S S S S S S S
|-------------------------------|----------------------------------|
|-------------------------------|----------------------------------|
|-------------------------3h4p3-|----------------------------------|
|-1S3-3-3-3-3-4-3-3-3-3-3-------|-1S3-3-3-3-3-4-3-3-3-3-3-3-3-3-3--|


  1.                       2.
  S S S S S S S S Q  Q      Q  E E Q  Q
|------------------------||--------------|
|-----------------------o||--------------|
|-----------------6--5--o||-6--5---------|
|-1S3-3-3-3-3-3-3--------||------3-6--5--|


   Chorus
    S S S S S S S S S S S S S S S S   S S S S S S S S S S S S S S S S
||----------------------------------|-----------------------------------||
||o---------------------------------|----------------------------------o||
||o---------------------------------|----------------------------------o||
||--0-1-1-1-1-1-1-1-4-4-1-1-1-1-1-1-|-3-3-1-1-1-1-1-1-2-2-1-1-1-1-1-1---||


    S S S S S S S S S S S S S S S S   S S S S S S S S S S S S S S S S
||----------------------------------|-----------------------------------||
||o---------------------------------|----------------------------------o||
||o---------------------------------|----------------------------------o||
||--1-2-2-2-2-2-2-2-5-5-2-2-2-2-2-2-|-4-4-2-2-2-2-2-2-3-3-2-2-2-2-2-2---||


    S S S S S S S S S S S S S S S S   S S S S S S S S S S S S S S S S
||----------------------------------|----------------------------------|
||o---------------------------------|----------------------------------|
||o---------------------------------|----------------------------------|
||--3-3-3-3-3-3-3-3-3-3-3-3-4-4-5-5-|-4-4-4-4-4-4-4-4-4-4-4-4-5-5-6-6--|


  S S S S S S S S S S S S S S S S
|---------------------------------|
|---------------------------------|
|---------------------------------|
|-5-5-5-5-5-5-5-5-5-5-5-5-6-6-7-7-|


 1.                                  2.
  S S S S S S S S S S S S S S S S     E E Q  E E E E
|----------------------------------||------------------|
|---------------------------------o||------------------|
|---------------------------------o||------------------|
|-6-6-6-6-6-6-6-6-5-5-5-5-4-4-4-4--||-6------5---4-----|


   Verse 2
    S S S S S S S S S S S S S S S S   S S S S S S S S S S S S S S E
||----------------------------------|-------------------------------|
||o---------------------------------|-------------------------------|
||o---------------------------------|-------------------------3h4p3-|
||--1S3-3-3-3-3-4-3-3-3-3-3-3-3-3-3-|-1S3-3-3-3-3-4-3-3-3-3-3-------|


  S S S S S S S S S S S S S S S S   S S S S S S S S Q  Q
|---------------------------------|-----------------------|
|---------------------------------|-----------------------|
|---------------------------------|-----------------------|
|-1S3-3-3-3-3-4-3-3-3-3-3-3-3-3-3-|-1S3-3-3-3-3-3-3-3--2--|


  S S S S S S S S S S S S S S S S   S S S S S S S S S S S S S S E
|---------------------------------|--------------------------------|
|---------------------------------|--------------------------------|
|---------------------------------|-------------------------3h4p3--|
|-1S3-3-3-3-3-4-3-3-3-3-3-3-3-3-3-|-1S3-3-3-3-3-4-3-3-3-3-3--------|

[ Tab from: http://www.guitartabs.cc/tabs/s/slayer/sex_murder_art_btab.html ]
                                   1.                        2.
  S S S S S S S S S S S S S S S S   S S S S S S S S Q  Q      Q  E E Q  Q
|---------------------------------|------------------------||---------------|
|---------------------------------|-----------------------o||---------------|
|---------------------------------|-----------------6--5--o||-6--5----------|
|-1S3-3-3-3-3-4-3-3-3-3-3-3-3-3-3-|-1-3-3-3-3-3-3-3--------||------3-6--5---|


   Chorus
    S S S S S S S S S S S S S S S S   S S S S S S S S S S S S S S S S
||----------------------------------|-----------------------------------||
||o---------------------------------|----------------------------------o||
||o---------------------------------|----------------------------------o||
||--0-1-1-1-1-1-1-1-4-4-1-1-1-1-1-1-|-3-3-1-1-1-1-1-1-2-2-1-1-1-1-1-1---||


                                     1.
    S S S S S S S S S S S S S S S S   S S S S S S S S S S S S S S S S
||----------------------------------|----------------------------------||
||o---------------------------------|---------------------------------o||
||o---------------------------------|---------------------------------o||
||--1-2-2-2-2-2-2-2-5-5-2-2-2-2-2-2-|-4-4-2-2-2-2-2-2-3-3-2-2-2-2-2-2--||


 2.
  S S S S S S S S S S S S S S S S
|------------------------------------|
|------------------------------------|
|------------------------------------|
|-4-4-2-2-2-2-2-2-2-2-2-2-2-2-2-2----|


   Interlude
    E E E E E E E E   E E Q  E E E E   E E E E E E Q
||------------------|----------------|-----------------||
||o-----------------|----------------|----------------o||
||o-----------------|----------------|----------------o||
||--0-1-0-0-3-2-0-5-|-4-0-7--0-1-0-0-|-3-2-0-5-4-0-8---||


   Verse 3
    E E E E E E E E   E E Q  E E E E   E E E E E E E E   E E Q  E E E E
||------------------|----------------|-----------------|------------------||
||o-----------------|----------------|-----------------|-----------------o||
||o-----------------|----------------|-----------------|-----------------o||
||--0-1-0-0-3-2-0-5-|-4-0-7--0-0-0-0-|-0-1-0-0-3-2-0-5-|-4-0-8--0-0-0-0---||


  E E E E E E E E   E E Q  E E E E   E E E E E E E E   E E Q  E E E E
|-----------------|----------------|-----------------|----------------|
|-----------------|----------------|-----------------|----------------|
|-----------------|----------------|-----------------|----------------|
|-0-1-0-0-3-2-0-5-|-4-0-7--0-0-0-0-|-0-1-0-0-3-2-0-5-|-4-0-8--0-1-0-0-|


  E E E E E E Q    E E E E E E E E   E E Q  E E E E   E E E E E E Q
|----------------|-----------------|----------------|----------------|
|----------------|-----------------|----------------|----------------|
|----------------|-----------------|----------------|----------------|
|-3-2-0-5-4-0-7--|-0-1-0-0-3-2-0-5-|-4-0-8--0-1-0-0-|-3-2-0-5-4-0-7--|


  E E E E E E E E   E E Q  H
|-----------------|-------------*|
|-----------------|-------------*|
|-----------------|-------------*|
|-0-1-0-0-3-2-0-5-|-4-0-8--7----*|


Duration Legend
---------------
W - whole; H - half; Q - quarter; E - 8th; S - 16th; T - 32nd; X - 64th; a - acciaccatura
+ - note tied to previous; . - note dotted; .. - note double dotted
Uncapitalized letters represent notes that are staccato (1/2 duration)
Irregular groupings are notated above the duration line
Duration letters will always appear directly above the note/fret number it represents the
duration for.  Duration letters with no fret number below them represent rests.  Multi-
bar rests are notated in the form Wxn, where n is the number of bars to rest for.  Low
melody durations appear below the staff

Tablature Legend
----------------
 h   - hammer-on
 p   - pull-off
 b   - bend
 pb  - pre-bend
 r   - bend release (if no number after the r, then release immediately)
 /\  - slide into or out of (from/to "nowhere")
 s   - legato slide
 S   - shift slide
  - natural harmonic
[n]  - artificial harmonic
n(n) - tapped harmonic
 ~   - vibrato
 tr  - trill
 T   - tap
 TP  - trem. picking
 PM  - palm muting
\n/  - tremolo bar dip; n = amount to dip
 \n  - tremolo bar down
 n/  - tremolo bar up
/n\  - tremolo bar inverted dip
 =   - hold bend; also acts as connecting device for hammers/pulls
 <>  - volume swell (louder/softer)
 x   - on rhythm slash represents muted slash
 o   - on rhythm slash represents single note slash

Misc Legend
-----------
 |  - bar
||  - double bar
||o - repeat start
o|| - repeat end
*|  - double bar (ending)
 :  - bar (freetime)
 $  - Segno
 &  - Coda
Tempo markers -  = BPM(8/16=s8/s16), where s8 = swing 8ths, s16 = swing 16ths


***************************************************************************************
* Generated using Power Tab Editor by Brad Larsen - http://powertab.guitarnetwork.org *
***************************************************************************************
Comments