Slayer - Seasons In The Abyss Chords & Tabs

 

Seasons In The Abyss Chords & Tabs

Slayer Chords & Tabs

Version: 4 Type: Tab 0 ratings
1 star 2 stars 3 stars 4 stars 5 stars
comments

Seasons In The Abyss Tab

sLaYeR's SeAsOnS iN tHe AbYsS
tAbEd By MaTtHeW cArRoLl

1|--------0-------------
2|--------0-------------
3|----------------------X6
4|---2---------2--------
5|---2--------2-1^-4-4-2
6|---0-------------2-2-0

After the riff above is played twice you place this riff below along with the riff above
[ Tab from: http://www.guitartabs.cc/tabs/s/slayer/seasons_in_the_abyss_tab_ver_4.html ]
1|----------------------
2|----------------------
3|----------------------
4|------------2---------
5|-----3-2---2-1^-4-4-2-
6|-0-1------------2-2-0-
After the riff above is played twice you play the riff below with the very first riff

1|-----------------12---------
2|--------13-12-12------------
3|-----14-------------15------
4|--15------------------------
5|-----------------------44-2-
6|-----------------------22-0-

That is it now go learn to play some metallica tabs since know a slayer tab. 
I would put the rest but its late and I am to tired.
Comments