Slayer - Seasons In The Abyss Chords & Tabs

 

Seasons In The Abyss Chords & Tabs

Slayer Chords & Tabs

Version: 2 Type: Tab 0 ratings
1 star 2 stars 3 stars 4 stars 5 stars
comments

Seasons In The Abyss Tab

Seasons in the Abyss
By: Slayer
Album: Seasons in the Abyss
Transcribed by: Mike Bower
Tune down ½ step.
Gtrs 1&2
|------0--------------------------------------------------------|
|------0--------------------------------------------------------|
|---------------------------------------------------------------|
|---2-------2-----3--3------------------------------------------|
|---2-----2---1^--3--3------------------------------------------|
|---0-------------1--1------------------------------------------|

Gtr. 1
|------------0--------------------------------------------------|
|------------0--------------------------------------------------|
|---------------------------------------------------------------|
|------------------2-----3--3-----------------------------------|
|-------3-2------2---1^--3--3-----------------------------------|
|---0-1------------------1--1-----------------------------------|
Gtr.2
|------------0--------------------------------------------------|
|------------0--------------------------------------------------|
|---------------------------------------------------------------|
|---2--------------2-----3--3-----------------------------------|
|---2------------2---1^--3--3-----------------------------------|
|---0--------------------1--1-----------------------------------|
Gtr.1
|---------------------------------------------------------------|
|----------------------17---------------------------------------|
|-------14-16-15^---16-----15^----------------------------------|
|----15--------------------------3--3---------------------------|
|--------------------------------3--3---------------------------|
|--------------------------------1--1---------------------------|
Gtr. 2
|----------------0----------------------------------------------|
|----------------0----------------------------------------------|
|---------------------------------------------------------------|
|----2----------------2----------3--3---------------------------|
|----2--------------2---1^-------3--3---------------------------|
|----0---------------------------1--1---------------------------|

Gtr. 1
|---------------|
|---------------|
|---------------|
|------2--------|
|------2--------|
|------0--------|



Gtr. 2
|--------0----------------0----------------0--------------------|
|------0---0------------0---0------------0---0------------------|
|----3-------3---3----3-------3---3----3-------3---3------------|
|--2-----------2----2-----------2----3-----------3--------------|
|---------------------------------------------------------------|
|---------------------------------------------------------------|
[ Tab from: http://www.guitartabs.cc/tabs/s/slayer/seasons_in_the_abyss_tab_ver_2.html ]
|---------0--------0--------------------------------------------|
|-------0--------0----------------------------------------------|
|-----3--------3------------------------------------------------|
|---------------------------------------------------------------|
|---3--------2--------------------------------------------------|
|---------------------------------------------------------------|
Gtr. 1
|---------------------------------------------------------------|
|---------------------------------------------------------------|
|---------------------------------------------------------------|
|---------------------------------------------------------------|
|---2-----------3------------5----------4-----------------------|
|---0-----------1------------3----------2-----------------------|
|---------------------------------------------------------------|
|---------------------------------------------------------------|
|---4/999999999999-999--*******---------------------------------|
|---------------------------------------------------------------|
|---2/777777777777-777--8888888-----5---4-----------------------|
|-----------------------------------3---2-----------------------|
*= 10th fret
Both Gtrs
|---------------------------------------------------------------|
|---------------------------------------------------------------|
|---------------------------------------------------------------|
|------------------------------2-----1--------------------------|
|------------------------------2-----1--------------------------|
|---0-2-3--0-2-3-5----0-2-3-5----0-0---0------------------------|
    pm-----------------------|   * *   *
|---------------------------------------------------------------|
|---------------------------------------------------------------|
|---------------------------------------------------------------|
|-----------------------------------------------------------1---|
|-2-----1---------2-----2---------2-----1---------2------3--1---|
|-0-000-0-0-0-0-0-0-000-1-0-0-0-0-0-000-0-0-0-0-0-0-0000-3------|
    ***   pm-----|  ***   pm-----|  ***   pm-----|  ****
|---------------------------------------------------------------|
|---------------------------------------------------------------|
|---------------------------------------------------------------|
|---------------------------------------------------------------|
|-2-----1---------2-----2---------2-----1---------2------6--5---|
|-0-000-0-0-0-0-0-0-000-1-0-0-0-0-0-000-0-0-0-0-0-0-0000-4--3---|
    ***   pm-----|  ***   pm-----|  ***   pm-----|  ****



|---------------------------------------------------------------|
|---------------------------------------------------------------|
|---------------------------------------------------------------|
|---------------------------------------------------------------|
|---2--------5-----4-------5--4-----2-----3---6-----5--4--------|
|---0--------3-----2-------3--2-----0-----1---4-----3--2--------|

That's pretty much it. An easy, but another kick ass song by SLAYER. Questions, Comments, Requests, e-mail me at gtrdeath@hotmail.com
Comments