Slayer - Seasons In The Abyss Chords & Tabs

 

Seasons In The Abyss Chords & Tabs

Slayer Chords & Tabs

Version: 1 Type: Bass Tab 0 ratings
1 star 2 stars 3 stars 4 stars 5 stars
comments

Seasons In The Abyss Bass Tab

_Seasons_In_The_Abyss_  by Slayer   BASS tab

>From December 1995 Guitar World Magazine

1/2 step below standard tuning (Eb,Ab,Db,Gb)

                                      
                                      1,2,3,4,5.      6.
                                     |~~~~~~~~~~~~~~ |~~~~~~~~~~~~~
Gb:-----------|-----------|-----------|--------------|---------------|
Db:*----------|-----------|-----------|-------------*|---------------|
Ab:*----------|-----------|-----------|-------------*|---------------|
Eb:--0--------|-(0)-------|-0---------|-(0)---1--1---|-(0)----1-1--r-|


Gb:------------------------|
Db:------------------------|
Ab:-------|
Eb:--0---------------------|


Gb:--------------------------------------------------------------|
Db:---------------------------------2---2--2---2--2---3/-10--9---|
Ab:--------------------------------------------------------------|
Eb:---0---0--0---0--1--1---1/-8--7-------------------------------|


Gb:---------------------------------------------------------------------|
Db:*-------------------------------------------------------------------*|
Ab:*-------------------------------------------------------------------*|
Eb:---0----0-0---0-0--0--1-----3--2---0---0-0-r-0-0--0-0--1-----3--2----|

                                                (3x)
Gb:--------------------------|-----------------------||
Db:--------------------------|*---------2--r--1--r--*||
Ab:--------------2--r--1--r--|*---R-----------------*||
Eb:-0---r---R----------------|-----------------------||

                                                 (3x)
Gb:-----------------------------------------------------|
Db:*---------------------------------------------------*|
Ab:*-----------------------------------2--------1------*|
Eb:---0--2--3--0--2--3--5--0--2--3--0-----3--0-----2----|


Gb:------------------------------------------------|
Db:------------------------------------------------|
Ab:------------------------------------------------|
Eb:--0--2--3--0--2--3--5--0--2--3--0--2--4----3----|

   %1(sign)
   [Begin Riff 1]
Gb:--------------------------------------------------------------------------|
Db:*-------------------------------------------------------------------------|
Ab:*-------------------------------------------------------------------------|
Eb:---0---0--0--0---0--0--0--0---0---0--0--0--1---0--0--0--0---0---0-0---0--0|

[ Tab from: http://www.guitartabs.cc/tabs/s/slayer/seasons_in_the_abyss_btab.html ]
               1.                      2.         [End Riff 1.]    %2(sign)
              |~~~~~~~~~~~~~~~~~~~~~  |~~~~~~~~~~~~~~~
Gb:-----------------------------------|---------------------------|----------|
Db:----------------------------------*|---------------------------|--Riff-1--|
Ab:------------------------------1---*|---------------------------|----------|
Eb:--0--0--0--0--0--0-0-0--0--3-------|---0--0-0-0--0--4----3-----|----------|

   [Begin Riff 2]
Gb:--------------------------------------------------------------------------|
Db:*-------------------------------------------------------------------------|
Ab:*-------------------------------------------------------------------------|
Eb:--0-----0-----3-----3-----2-------------3---2---0-----0-----1-----1-----4-|


            (CODA1)             
             (CODA2)           
        [End Riff 2]
Gb:-----------------|-----------|
Db:----------------*|-D.S.-%1---|
Ab:----------------*|-al-coda1--|
Eb:----------3--2---|-----------|

      |
  -(CODA1)-
      |
Gb:--------------------------------------------------------------------------|
Db:--------------------------------------------------------------------------|
Ab:------------2--r--1--r---R----2--r--1--r----------------------------------|
Eb:-0---R-------------------------------------0--2--3--0--2--3--5--0--2--3--0|


Gb:--------------------------------------------------------------|
Db:--------------------------------------------------------------|
Ab:--2--------1-----------------------0--------------------------|
Eb:-----3--0-----2--0--2--3--0--2--3-----0--2--3--0--0--4----3---|


Gb:--------------------------------------------------------------------------|
Db:*-------------------------------------------------------------------------|
Ab:*----------1-----------------------1-----------------------0--------------|
Eb:--1--1--1-----1--1--1--1--1--1--1-----1--1--1--1--1--1--1-----1--1--1--1--|


                     (4x.)
Gb:-------------------------|----------|----------------------------|
Db:------------------------*|--Riff-2--|----------------------------|
Ab:------------------------*|----------|---------------2--r--1--r---|
Eb:1--1--1--4--1--1--1--1---|----------|-0-----r--------------------|


Gb:------------|
Db:--D.S.-%2---|
Ab:--al-coda2--|
Eb:------------|

      |
  -(CODA2)-
      |
Gb:--------------------------------------------------------------------------|
Db:--------------------------------------------------------------------------|
Ab:--------------------------------------------------------------------------|
Eb:-0-----1---3---1----0------1----1-1---3---1----0---1---1-1---3---1---0---0|


Gb:-------------------------------------|
Db:-------------------------------------|
Ab:-------------------------------------|
Eb:-0---0-0----1---3--1---0-----0-------|

/----------------------------------------\ 
|  ____    ____                          |
| (    `--'  .-'               _T_T_T_T_ |
| |8| O  O  |||||||||||||||||||[o o o o/ | 
| (__,--.____\                 `~~~`--'  |
|     from the desk of jaco pastorius..  |
|            jazzbass@cfw.com            |
|  http://www.vt.edu:10021/A/acanterb/   |
\----------------------------------------/




Comments