Slayer - Raining Blood Chords & Tabs

 

Raining Blood Chords & Tabs

Slayer Chords & Tabs

Version: 3 Type: Tab 1 rating
1 star 2 stars 3 stars 4 stars 5 stars
comments

Raining Blood Tab

Slayer
Raining Blood

Note the palm mute on the lower strings

    PM                                                                          
E---------------------------|---------------------||----------------------------
B---------------------------|---------------------||----------------------------
G---------------------------|--------------------*||----------------------------
D------------------8--9--9--|-----8--7-----7--6--*||----------------------------
A---------------7-----------|--9--------8---------||----------------------------
E------0--0--0--------------|---------------------||----------------------------
                                                                                

         PM                                                                     
E---||---------------------------|---------------------||-----------------------
B---||---------------------------|---------------------||-----------------------
G---||*-----------------8--9--8--|-----8--7-----7--6--*||-----------------------
D---||*--------------7-----------|--9--------8--------*||-----------------------
A---||---------------------------|---------------------||-----------------------
E---||------0--0--0--------------|---------------------||-----------------------
                                                                            

Gallup Riff

Use strict alternate picking for this rhythm.
[ Tab from: http://www.guitartabs.cc/tabs/s/slayer/raining_blood_tab_ver_3.html ]
                                                                                
E---------------------------------------------------|---------------------------
B---------------------------------------------------|---------------------------
G---------------------------------------------------|---------------------------
D---------------------------------------------------|---------------------------
A---------------------------------------------------|---------------------------
E------0--0--0-----0--0--0-----0--0--0-----0--0--0--|---------------------------
                                                                                

                                                                                
E------------------------------------------------|------------------------------
B------------------------------------------------|------------------------------
G------------------------------------------------|------------------------------
D------------------------------------------------|------------------------------
A------------------------------------------------|------------------------------
E---0--0--0-----0--0--0-----0--0--0-----0--0--0--|------------------------------
                                                                                

                                                                                
E------------------------------------------------|------------------------------
B------------------------------------------------|------------------------------
G------------------------------------------------|------------------------------
D------------------------------------------------|------------------------------
A------------------------------------------------|------------------------------
E---0--0--0-----0--0--0-----0--0--0-----0--0--0--|------------------------------
                                                                                

                                                                                
E----------------------------||-------------------------------------------------
B----------------------------||-------------------------------------------------
G---------------------------*||-------------------------------------------------
D---------------3--2--------*||-------------------------------------------------
A------------4--------3--2---||-------------------------------------------------
E---0--2--4------------------||-------------------------------------------------
                                                                            

Comments