Slayer - Raining Blood Chords & Tabs

 

Raining Blood Chords & Tabs

Slayer Chords & Tabs

Version: 1 Type: Bass Tab 0 ratings
1 star 2 stars 3 stars 4 stars 5 stars
comments

Raining Blood Bass Tab

   
**********************************************************************
This tab file was downloaded from THE ABYSS - the complete Slayer site                      http://www.slaytanic.com/
**********************************************************************

                       Raining Blood - Slayer
                       ======================

Tune down 1/2 step (Eb,Ab,Db,Gb)

 178 bpm
|-----------------|-----------------|-----------------|-----------------|
|-----------------|-----------------|-----------------|-----------------|
|-----------------|-----------------|-----------------|-----------------|
|-0-0-0-----------|-----------------|-0-0-0-----------|-----------------|

|-----------------|-----------------|-----------------|-----------------||
|-----------------|-----------------|-----------------|-----------------||
|-----------------|-----------------|-----------------|-----------------||
|-0-0-0-----------|-----------------|-0-0-0-----------|-----------------||

|-----------------|-----------------|-----------------|-----------------|
|-----------------|-----------------|-----------------|---------3-2-----|
|-----------------|-----------------|-----------------|-------4-----3-2-|
|-000-000-000-000-|-000-000-000-000-|-000-000-000-000-|-0-2-4-----------|

|-----------------|-----------------|-----------------|-----------------|
|-----------------|-----------------|-----------------|---------3-2-----|
|-----------------|-----------------|-----------------|-------4-----3-2-|
|-000-000-000-000-|-000-000-000-000-|-000-000-000-000-|-0-2-4-----------|

|-----------------|-----------------|-----------------|-----------------|
|-----------------|-----------------|-----------------|---------3-2-----|
|-----------------|-----------------|-----------------|-------4-----3-2-|
|-000-000-000-000-|-000-000-000-000-|-000-000-000-000-|-0-2-4-----------|

|-----------------|-----------------|-----------------|-----------------||
|-----------------|-----------------|-----------------|---------3-2-----||
|-----------------|-----------------|-----------------|-------4-----3-2-||
|-000-000-000-000-|-000-000-000-000-|-000-000-000-000-|-0-2-4-----------||

 214 bpm
|-----------------|-----------------|-----------------|-----------------|
|-----------------|-----------------|-----------------|-----------------|
|-----------------|-----------------|-----------------|-------------1---|
|-5---6---5---6---|-5---6---5---6---|-5320643053206430|-532064305320--03|

|-----------------|-----------------|-----------------|-----------------|
|-----------------|-----------------|-----------------|-----------------|
|-----------------|-----------------|-----------------|-------------1---|
|-5320643053206430|-532064303---6-03|-5320643053206430|-532064305320--03|

|-----------------|-----------------|-----------------|-----------------|
|-----------------|-----------------|-----------------|-----------------|
|-----------------|-----------------|-----------------|-------------1---|
|-5320643053206430|-532064303---6-03|-5320643053206430|-532064305320--03|

|-----------------|-----------------||
|-----------------|-----------------||
|-----------------|-----------------||
|-5320643053206430|-532064303---6---||

 verse 1
|-----------------|-----------------|-----------------|-----------------|
|-----------------|-----------------|-----------------|-----------------|
|---------3---6---|---------2---5---|---------3---6---|---------2---5---|
|-0-00000---0-----|-0-00000---------|-0-00000---0-----|-0-00000---------|

|-----------------|-----------------|-----------------|-----------------|
|-----------------|-----------------|-----------------|-----------------|
|---------3---6---|---------2---5---|---------3---6---|---------2---5---|
|-0-00000---0-----|-0-00000---------|-0-00000---0-----|-0-00000---------|

|-----------------|-----------------|-----------------|-----------------|
|-----------------|-----------------|-----------------|-----------------|
|---------3---6---|---------2---5---|---------3---6---|---------2---5---|
|-0-00000---0-----|-0-00000---------|-0-00000---0-----|-0-00000---------|

|-----------------|-----------------|-----------------|-----------------||
|-----------------|-----------------|-----------------|-----------------||
|---------3---6---|---------2---5---|---------3---6---|---------2---5---||
|-0-00000---0-----|-0-00000---------|-0-00000---0-----|-0-00000---------||

 188 bpm
|-----------------|-----------------|-----------------|-----------------|
|-----------------|-----------------|-----------------|-----------------|
|----------hpp----|-----------------|-6-6-6-6-6-6-6-6-|-6-6-6-6---------|
|-0-0-0-0-03101---|-0-0-0-0-3-6-5---|-----------------|---------5---5---|

|-----------------|-----------------|-----------------|-----------------||
|-----------------|-----------------|-----------------|-----------------||
|----------hpp----|-----------------|-6-6-6-6-6-6-6-6-|-6-6-6-6---------||
|-0-0-0-0-03101---|-0-0-0-0-3-6-5---|-----------------|---------5---5---||

 bridge
|-----------------|-----------------|-----------------|-----------------|
|-----------------|-----------------|-----------------|-----------------|
|----------hpp----|-----------------|-6-6-6-6-6-6-6-6-|-6-6-6-6---------|
|-0-0-0-0-03101---|-0-0-0-0-3-6-5---|-----------------|---------5---5---|
[ Tab from: http://www.guitartabs.cc/tabs/s/slayer/raining_blood_btab.html ]
|-----------------|-----------------|-----------------|-----------------||
|-----------------|-----------------|-----------------|-----------------||
|----------hpp----|-----------------|-6-6-6-6-6-6-6-6-|-6-6-6-6---------||
|-0-0-0-0-03101---|-0-0-0-0-3-6-5---|-----------------|---------5---5---||

 185 bpm
|-----------------|-----------------|-----------------|-----------------|
|-----------------|-----------------|-----------------|-----------------|
|-----------------|-----------------|-----------------|-----------------|
|-0-0-0-----------|-----------------|-0-0-0-----------|-----------------|

|-----------------|-----------------|-----------------|-----------------||
|-----------------|-----------------|-----------------|-----------------||
|-----------------|-----------------|-----------------|-----------------||
|-0-0-0---6-------|-5-------4-------|-0-0-0---6-------|-5-------4-------||

 180 bpm
|-----------------|-----------------|-----------------|-----------------|
|-----------------|-----------------|-----------------|-----------------|
|-----------------|-----------------|-----------------|-----------------|
|-0-0-----0-0-----|-0-0-----0-0-----|-0-0-----0-0-----|-0-0-----0-0-----|

|-----------------|-----------------|-----------------|-----------------||
|-----------------|-----------------|-----------------|-----------------||
|-----------------|-----------------|-----------------|-----------------||
|-0-0-----0-0-----|-0-0-----0-0-----|-0-0-----0-0-----|-0-0-----0-0-----||

|-----------------|-----------------|-----------------|-----------------|
|-----------------|-----------------|-----------------|-----------------|
|-----------------|-----------------|-----------------|-----------------|
|-0-0-----0-0-----|-0-0-----0-0-----|-0-0-----0-0-----|-0-0-----0-0-----|

|-----------------|-----------------|-----------------|-----------------|
|-----------------|-----------------|-----------------|-----------------|
|-----------------|-----------------|-----------------|-----------------|
|-0-0-----0-0-----|-0-0-----0-0-----|-0-0-----0-0-----|-0-0-----0-0-----|

|-----------------|-----------------|-----------------|-----------------||
|-----------------|-----------------|-----------------|-----------------||
|-----------------|-----------------|-----------------|-----------------||
|-0-0-----0-0-----|-0-0-----0-0-----|-0-0-----0-0-----|-0-0-----0-0-----||

 chorus
|-----------------|-----------------|-----------------|-----------------|
|-----------------|-----------------|-----------------|-----------------|
|-----------------|-----------------|-----------------|-----------------|
|-0-0-3-7-0-0-3-6-|-0-0-3-5-0-0-3\2-|-0-0-3-7-0-0-3-6-|-0-0-3-5-0-0-3\2-|

|-----------------|-----------------|-----------------|-----------------||
|-----------------|-----------------|-----------------|-----------------||
|-----------------|-----------------|-----------------|-----------------||
|-0-0-3-7-0-0-3-6-|-0-0-3-5-0-0-3\2-|-0-0-3-7-0-0-3-6-|-0-0-3-5-0-0-3\2-||

                                    2/4       4/4
|-----------------|-----------------|---------|-----------------||
|-----------------|-----------------|---------|-----------------||
|-----------------|-----------------|---------|-----------------||
|-0000000000000000|-0000000000000000|-00000000|-0000000000000000||

 247 bpm
|-----------------|-----------------|-----------------|-----------------|
|-----------------|-----------------|-----------------|-----------------|
|-----------------|-----------------|-----------------|-----------------|
|-0-0-0-0-0-0-7-7-|-6-6-6-6-3-3-3-3-|-0-0-0-0-0-0-7-7-|-6-6-6-6-3-3-3-3-|

|-----------------|-----------------|-----------------|-----------------|
|-----------------|-----------------|-----------------|-----------------|
|-----------------|-----------------|-----------------|-----------------|
|-0-0-0-0-0-0-7-7-|-6-6-6-6-3-3-3-3-|-0-0-0-0-0-0-7-7-|-6-6-6-6-3-3-3-3-|

|-----------------|-----------------|-----------------|-----------------|
|-----------------|-----------------|-----------------|-----------------|
|-----------------|-----------------|-----------------|-----------------|
|-4-4-4-4-4-4-8-8-|-7-7-7-7-7-7-8-8-|-4-4-4-4-4-4-8-8-|-7-7-7-7-7-7-8-8-|

|-----------------|-----------------|-----------------|-----------------|
|-----------------|-----------------|-----------------|-----------------|
|-----------------|-----------------|-----------------|-----------------|
|-0-0-0-0-0-0-7-7-|-6-6-6-6-3-3-3-3-|-0-0-0-0-0-0-7-7-|-6-6-6-6-3-3-3-3-|

|-----------------|-----------------|-----------------|-----------------|
|-----------------|-----------------|-----------------|-----------------|
|-----------------|-----------------|-----------------|-----------------|
|-0-0-0-0-0-0-7-7-|-6-6-6-6-3-3-3-3-|-0-0-0-0-0-0-7-7-|-6-6-6-6-3-3-3-3-|

|-----------------|-----------------|-----------------|-----------------|
|-----------------|-----------------|-----------------|-----------------|
|-----------------|-----------------|-----------------|-----------------|
|-0-0-0-0-0-0-7-7-|-6-6-6-6-3-3-3-3-|-0-0-0-0-0-0-7-7-|-6-6-6-6-3-3-3-3-|

|-----------------|-----------------|-----------------|-----------------|
|-----------------|-----------------|-----------------|-----------------|
|-----------------|-----------------|-----------------|-----------------|
|-0-0-0-0-0-0-7-7-|-6-6-6-6-3-3-3-3-|-0-0-0-0-0-0-7-7-|-6-6-6-6-3-3-3-3-|

|-----------------|-----------------|-----------------|-----------------|
|-----------------|-----------------|-----------------|-----------------|
|-----------------|-----------------|-----------------|-----------------|
|-0-0-0-0-0-0-7-7-|-6-6-6-6-3-3-3-3-|-0-0-0-0-0-0-0-0-|-0-0-0-0-0-0-0-0-|

|-----------------|-----------------||
|-----------------|-----------------||
|-----------------|-----------------||
|-0-0-0-0-0-0-0-0-|-0-0-0-0-0-------||


Comments